Danzig

Danzig
Mother Ver 5 (Guitar tab)

Mother




(this song has 3 simple chords...they are B,G,and A...use these chords
change them around...)

E--------------
B--------------
G---------2----
D---4--0--2--4-
A---2--2--0--2-
E------3-------
"mother..tell your children not to walk my way..."

"...what they mean, what they say...."

E--------------------------- E-------------------------------
B--------------------------- B-------------------------------
G----------2--2-2-2--------- G-----2--------2--2-2-2---------
D---0--0-0-2--2-2-2-0-4-4-4- D---4-2-0--0-0-2--2-2-2-0-4-4-4-
A---2--2-2-0--0-0-0-0-2-2-2- A---2-0-2--2-2-0--0-0-0-0-2-2-2-
E---3--3-3------------------ E-------3--3-3------------------
"mother.................MOTHER!!........can you keep them in the dark for life.."

E-----------------------------
B-----------------------------
G-------------2-2-2-2-2-------
D---5-5-5-5---2-2-2-2-2-4-4-4-
A---5-5-5-5---0-0-0-0-0-2-2-2-
E---3-3-3-3-------------------
"not about to see your light...and if you...

E-----------------------------------
B-----------------------------------
G----2-------------2-2-2-2-2--------
D--4-2--5-5-5-5----2-2-2-2-2-4-4-4--
A--2-0--5-5-5-5----0-0-0-0-0-2-2-2--
E-------3-3-3-3---------------------
"wanna find hell with me..."

E----------------------------------------
B----------------------------------------
G----2------------2-2-2-2-2--------------
D--4-2--5-5-5-5---2-2-2-2-2-4-4-4-4-4-4--
A--2-0--5-5-5-5---0-0-0-0-0-2-2-2-2-2-2--
E-------3-3-3-3--------------------------
PM>>>>>>>>>>
E-----------
B-----------
G------2----
D--4-0-2-4-- (this part is the rhythm during the first solo)
A--2-2-0-2--
E----3------


First Solo: Provided by MisfitsCentral.com
Full Full Full
E-------------------------------------------------------------------------
B---------------------------------------------------/|\--/|\--/|\---------
G----------------------------------------------------|----|----|----------
D-------------------------7--9h7-----7--9h7----------|----|----|----------
A-----------5--7--5--7h9----------9----------9--7----9h7--9h7--9----------
E--7--5--7----------------------------------------------------------------

Full Full
| | Full
E---------------------------7------------------10h7-----------------------
B--------------------7--10-----10----10-----7-----------------------------
G-------------------------------------------------------10----10----------
D--------9----------------------------------------------------------------
A-------------------------------------------------------------------------
E-------------------------------------------------------------------------

Full
E-----------------------
B-----------------------
G---------15h17--17-----
D---/16-----------------
A-----------------------
E-----------------------

E---17--------17----17--------------17--------------
B-------------------17b-------------17b-------17h15-
G-------17b-----------------------------------------
D---------------------------------------------------
A---------------------------------------------------
E---------------------------------------------------

Full
|
E----------------------------19--24------------------24------------------
B---17--15--------------/19----------------------------------------------
G-----------16-----------------------------------------------------------
D------------------------------------------------------------------------
A------------------------------------------------------------------------
E------------------------------------------------------------------------

E--------------
B--------------
G------2-------
D--4-5-2-4-7-6-(repeat)
A--2-5-0-2-5-4-(this is the rhythm during the second solo)
E----3---------

(you can strum the notes too...thats the way they play it live)

E------------------
B------------------
G------------------
D---7-7-7-6-6-44-4- (End)
A---5-5-5-4-4-22-2-
E------------------

(listen to song and piece what goes where..)

OptimusPrime

Toegevoegd door OptimusPrime op do 14 aug, 2003 4:35 pm

Auteur: ?
Componist: ?
Uitgever: ?
Taal: Engels

Reacties

CommonCrawl [Bot]

Volg Muzikum