Danzig

Danzig
Mother Ver 3 (Bass tab)

Guitar and Hi-hat are going....

"Father!!...."

G--------
D--------
A--------
E---7-7--

"...out tonight...."

G-------
D-------
A-------
E--7-7--

"Gonna show her my world..."

G----------------------
D----------------------
A----------------------
E--7-7-7-7-7-7-7-7-7---

You might think this next part is wrong, but i seen Eerie play it this way
so i know its right.



"not about to see your light....

G---------------------------------------
D---------------------------------------
A-------------0-0--0-0-0----------------
E--3-3--3-3-3------------7--7-7-7-7-7-7- (bass DOESNT pause when Guitar does)

I understand you can also go to the A-5 note, but this the way he plays it....
until the outro, is when Eerie goes to the A-5



"and if you wanna find hell with me"

G---------------------------------------
D---------------------------------------
A-----0-------------0-0--0-0-0----------
E--7-----3-3--3-3-3------------7--7-7-7-



"wanna find hell with me...i can show you what its...."

G-------------------------------------------------
D-------------------------------------------------
A-----0-------------0-0--0-0-0--------------------
E--7-----3-3--3-3-3------------7-7-7-7-7-7-7-7--7-



"Mother....tell your children not to hold my hand"

G-----------------------------
D-----------------------------
A----------------------------- repeating...
E--7-7-7-7-7-7-7-7-7-7-7-7-7--


"do you wanna feel everything....oh father"

G----------------------------------
D----------------------------------
A--------------------------------0-
E--7-7-7-7-7-7-7-7-7-7-7-7-7--3----



"wanna find hell with me...i can show you what its...."

G-------------------------------------------------
D-------------------------------------------------
A-----0-------------0-0--0-0-0--------------------
E--7-----3-3--3-3-3------------7-7-7-7-7-7-7-7-7-7




During Firt solo :

G-------------
D-------------
A-----3--0----
E--7--------7-


End of First solo :

G-------
D-------
A----0--
E--3----



Outro solo :

G-------------------------------------
D-------------------------------------
A-----------------------------5-5-4-4-
E-7-7-7-7---3-3-5-5--7-7-7-7----------

the outro Rhythmn solo is correct. i know its the same note as A-0 and E-5, but on this part....the riff needs a crisp feel and not an echo sound. Plus thats the way he plays it....

Piece it all together...

OptimusPrime

Toegevoegd door OptimusPrime op do 14 aug, 2003 4:35 pm

Auteur: ?
Componist: ?
Uitgever: ?
Taal: Engels

Reacties

CommonCrawl [Bot]

Volg Muzikum