Danzig

Danzig
I Luciferi (Guitar tab)

BAND: Danzig
SONG: I Luciferi
ALBUM: I Luciferi
June 2002

Tuning is down to C

Key:
^ - gradual bend up to...
* - palm mute

Riff 1:

e:-----------------------|
B:-----------------------|
G:-----------------------|
D:-4-5-5-4-5~------------|
A:-------------4-4-5-4-5-|
E:-----------------------|


Riff 2:

* * * * * * * * * * * * * *
e:-------------------------:---------------------|
B:-------------------------:---------------------|
G:-------------------------:---------------------|
D:-------------------------:---------------------|
A:-2--2-2-2--2-2-2---12^13-:-2--2-2-2--2-2-2-----|
E:-0--0-0-0--0-0-0---------:-0--0-0-0--0-0-0-4^5-|

Riff 3:

e:----------------------------|
B:----------------------------|
G:----------------------------|
D:------------------11-12-9---|
A:-2--2-2-2--2-2-2--9--10-7---|
E:-0--0-0-0--0-0-0------------|

NOTE:
Not Finished Yet

AFAN@NME.COM

OptimusPrime

Toegevoegd door OptimusPrime op do 14 aug, 2003 4:35 pm

Auteur: ?
Componist: ?
Uitgever: Evilive Records
Uitgegeven in: 2002
Taal: Engels
Beschikbaar op: 777 I Luciferi (2002)

Reacties

CommonCrawl [Bot]

Volg Muzikum