Danzig

Danzig
Black Mass (Guitar tab)

big mama jo
this song ist very smple

intro
d---5-3-2--22222
a----------22222
e--0-0-0---22222

do it a lot of time

verse and choris and all the song...

e--------------------------------------------------------------|
b--------------------------------------------------------------|
g--------------------------------------------------------------|
d---5-3-2--22222---5-3-6--22222---5-3-2--22222---5-3-6--22222--|
a----------22222----------22222----------22222----------22222--|
E--0-0-0---00000--0-0-0---00000--0-0-0---00000--0-0-0---00000--|



bet shearim rules

OptimusPrime

Toegevoegd door OptimusPrime op do 14 aug, 2003 4:35 pm

Auteur: ?
Componist: ?
Uitgever: Evilive
Uitgegeven in: 2002
Taal: Engels

Reacties

CommonCrawl [Bot]

Volg Muzikum