Danzig

Danzig
Anything Ver 2 (Guitar tab)

Anything


"Anything you want....Anything the..."

E-------------------
B-------------------
G------3-----1----1-
D----3---3-----3---- X4
A--1-------1--------
E-------------------


"World has to offer....."

E--------------------
B----------------4\--
G------6---6---6-----
D----6---6---6-------
A--4-----------------
E--------------------



"And its freedom...."

E----------------------------------
B----------------------------------
G----------------------------------
D------6----6-----------6----6-----
A----6----6-----6-----6----6-----6-
E--4----4-----4-----4----4-----4---

"...in my arms"

E-------------------
B-------------------
G------3-----1----1-
D----3---3-----3---- X2
A--1-------1--------
E-------------------

"And its freedom...."

E----------------------------------
B----------------------------------
G----------------------------------
D------6----6-----------6----6-----
A----6----6-----6-----6----6-----6-
E--4----4-----4-----4----4-----4---

"In my arms."

E------------------------------------
B------------------------------------
G------3-----3-----------------------
D----3-----3-----3-----4-----6-------
A--1-----1-----1-----4-----6---6---0-
E------------------2-----4-----------

"In my arms."

E------------------------------------
B------------------------------------
G------3-----3-----------------------
D----3-----3-----3-----4-----6-------
A--1-----1-----1-----4-----6---6---0-
E------------------2-----4-----------

"In my arms."

E------------------------------------
B------------------------------------
G------3-----3-----------------------
D----3-----3-----3-----4-----6-------
A--1-----1-----1-----4-----6---6---0-
E------------------2-----4-----------

"In my arms, YEAH!!"

E---------------------------------
B---------------------------------
G------3-----3--------------------
D----3-----3-----3---4--6---------
A--1-----1-----1-----4--6---------
E--------------------2--4---------
(distortion)

(distortion)

"Anytyhing you want....anything this.."

E-------------------
B-------------------
G------3-----1----1-
D----3---3-----3---- X3
A--1-------1--------
E-------------------

"world has to offer.."

E----------
B----------
G--6-5--6--
D--6-5--6--
A--4-3--4\-
E----------

"And its freedom..."

E------------
B------------
G------------
D------------
A--6-------6-
E--4-------4-

"in my arms.."

E-------------------
B-------------------
G------3-----1----1-
D----3---3-----3---- X2
A--1-------1--------
E-------------------
Pm>>>>>>>>>>>>>>>

"All its freedom..."

E------------
B------------
G------------
D------------
A--6-------6-
E--4-------4-

"in My!!!!"

E-------------------
B-------------------
G-------------------
D-------------------
A--3-3-3-3-3-3-3--3-
E--1-1-1-1-1-1-1--1-
PM>>>>>>>>>>>

"In my arms."

E------------------------------------
B------------------------------------
G------3-----3-----------------------
D----3-----3-----3-----4-----6------- X3
A--1-----1-----1-----4-----6---6---0-
E------------------2-----4-----------

E---------------------------------
B---------------------------------
G------3-----3--------------------
D----3-----3-----3---4--6---------
A--1-----1-----1-----4--6---------
E--------------------2--4---------

(No Distortion)

"Anything you want its in My arms"

E------------------------------------
B------------------------------------
G------3-----3-----------------------
D----3-----3-----3-----4-----6-------
A--1-----1-----1-----4-----6---6---0-
E------------------2-----4-----------

"Anything you need its in my arms"

E------------------------------------
B------------------------------------
G------3-----3-----------------------
D----3-----3-----3-----4-----6-------
A--1-----1-----1-----4-----6---6---0-
E------------------2-----4-----------

"Anything you need its In!!"

E---------------------------------
B---------------------------------
G------3-----3--------------------
D----3-----3-----3---4--6---------
A--1-----1-----1-----4--6---------
E--------------------2--4---------
(distortion)

(Solo is Transbribed below, The Rhythm During solo is : )

E------------
B------------
G------------
D------------
A--6-------6-
E--4-------4-

E-------------------
B-------------------
G------3-----1----1-
D----3---3-----3---- X2
A--1-------1--------
E-------------------
Pm>>>>>>>>>>>>>>>

at the end of the solo :

E-------------------
B-------------------
G-------------------
D-------------------
A--3-3-3-3-3-3-3--3-
E--1-1-1-1-1-1-1--1-
PM>>>>>>>>>>>

Solo Provided by MisfitsCentral.com

Solo:

Full Full
|-----------------------------------------------------------------|
|--19b---19b--19-19---19p17---------------19--16------------------|
|----------------------------19-17-16-----19--16h17---------------|
|--------------------------------------19-------------------------|
|-----------------------------------------------------------------|
|-----------------------------------------------------------------|

~~~~ Full
|-----------------------------------------------------------------|
|-----------18----19----18---18---18----18------------------------|
|---15---15----15----15------20b-----20----20P18------18h20-------|
|-------------------------------------------------20--------------|
|-----------------------------------------------------------------|
|-----------------------------------------------------------------|

Full Full
|-----------------------------------------------------------------|
|-----------------------------------------------------------------|
|--20----18----17------------17h18-20b---17h18h20b-(20)h17--------|
|--------------------18---20--------------------------------------|
|-----------------------------------------------------------------|
|-----------------------------------------------------------------|

Full Full~~~~~~~~~~
|----------------------------------17-19b-(19)p17-19b-------------|
|-------17h19h20---------17h19h20---------------------------------|
|---20-----------17h18h20-----------------------------------------|
|-----------------------------------------------------------------|
|-----------------------------------------------------------------|
|-----------------------------------------------------------------|

Full Full Full
|---17--19--20--20b-(20)-19--20b-(20)-19--20h19h17------17b-------|
|---------------------------------------------------19------------|
|-----------------------------------------------------------------|
|-----------------------------------------------------------------|
|-----------------------------------------------------------------|
|-----------------------------------------------------------------|

Full Full
|-----------------------------------------------------------------|
|-----------------------------------------------------------------|
|---20--18--17----------17h18-20b--17h18h20-(20)p17---------------|
|---------------18--20--------------------------------------------|
|-----------------------------------------------------------------|
|-----------------------------------------------------------------|

Full Full~~~~~~~~~~~
|-------------------------------17--19b-(19)p-17-19b--------------|
|---17h19h20----------17h19h20------------------------------------|
|------------17h18h20---------------------------------------------|
|-----------------------------------------------------------------|
|-----------------------------------------------------------------|
|-----------------------------------------------------------------|

Ending....

E------------------------------------
B------------------------------------
G------3-----3-----------------------
D----3-----3-----3-----4-----6-------
A--1-----1-----1-----4-----6---6---0-
E------------------2-----4-----------

E---------------------------------
B---------------------------------
G------3-----3--------------------
D----3-----3-----3---4--6---------
A--1-----1-----1-----4--6---------
E--------------------2--4--------- (end)


(Piece it all together)


Itscomingdown@hotmail.com

OptimusPrime

Toegevoegd door OptimusPrime op do 14 aug, 2003 4:35 pm

Auteur: ?
Componist: ?
Uitgever: ?
Taal: Engels

Reacties

CommonCrawl [Bot]

Volg Muzikum