Danzig

Danzig
Am I Demon (Bass tab)

D A N Z I G - Am I Demon
As Preformed On 'Danzig'
Intro/Verse
------------------
------------------
------------------
-0-0-0-0-0-0-0-3--

Chorus
-----------------
-----------------
-3-------4-------
-----------------

Bridge
-----------------------------------
-----------------------------------
---------------------------5-------
-5-7-7-7-7-7-5-7-7-7-7-7--------5--

Notes:
Just in case you haven�t figured it out yet; the outro is just the bridge with
rythm changes and a strumming B as an ending.

OptimusPrime

Toegevoegd door OptimusPrime op do 14 aug, 2003 4:35 pm

Auteur: Glenn Danzig
Componist: ?
Uitgever: Def American Recordings, Inc., Def USA Music, Inc.
Uitgegeven in: 1988
Taal: Engels

Reacties

CommonCrawl [Bot]

Volg Muzikum