Danzig

Danzig
Let It Be Captured Ver 2 (Guitar tab)

I saw this already on here but the tab was wrong so here's the
correct tab.


E-------------|------------|------------|------------|------------|
B-------------|------------|------------|------------|------------|
G--------2----|-------2----|-------2----|-------2----|-------2----|
D-----0-----0-|----0-----0-|----0-----0-|----0-----0-|----0-----0-|
A--3----------|-3----------|-1----------|-1----------|------------|
E-------------|------------|------------|------------|-1----------|


E-------------|------------|------------| Thats Basically it very
B-------------|------------|------------| simple.
G--------2----|-------2----|-------2----|
D-----0-----0-|----0-----0-|----0-----0-|
A-------------|------------|------------|

OptimusPrime

Toegevoegd door OptimusPrime op zo 01 dec, 2002 9:30 am

Auteur: ?
Componist: ?
Uitgever: ?
Taal: Engels

Reacties

CommonCrawl [Bot]

Volg Muzikum