Danzig

Danzig
Mother Ver 2 (Guitar tab)

Mother
by Danzig

play intro 3 or 4 times
Intro:
e|-----------|
B|-----------|
G|-----------|
D|-5---7---9-|
A|-5---7---9-|
E|-3---5---7-|

play 3 or 4 times
e|---------------------------------|
B|---------------------------------|
G|---------------------------------|
D|-9-9-9/---5--5-5/---7--7-7---9-9-|
A|-9-9-7/---5--5-5/---7--7-7---9-9-|
E|-7-0-7/---3--0-3/---5--0-5---7-7-|
P.M.

e|-----------------------------------------|
B|-----------------------------------------|
G|-----------------------------------------|
D|-9-9-9/---5/---7----5-5---7-7-7----9-9-9-|
A|-9-9-7/---5/---7----5-5---7-7-7----9-9-9-|
E|-7-0-7/---3/---5----3-3---5-5-5----7-7-7-|


e|-------------------------------------------|
B|-------------------------------------------|
G|-------------------------------------------|
D|-9-7-5---5--5-5-5-5---7---7-7-7-7-/--9-9-9-|
A|-9-7-5---5--5-5-5-5---7---7-7-7-7-/--9-9-9-|
E|-7-5-3---3--3-3-0-3---5---0-5-0-5-/--7-7-7-|


thats all I know, enjoy



tabbed by: Anthony C.

OptimusPrime

Toegevoegd door OptimusPrime op zo 01 dec, 2002 9:30 am

Auteur: ?
Componist: ?
Uitgever: ?
Taal: Engels

Reacties

CommonCrawl [Bot]

Volg Muzikum