Danzig

Danzig
Godless (Guitar tab)

GODLESS
=======
transcription: Chris Reeves

bassline:
Gb|-----------------|-----------------| Notes: Guitar plays an Em
Db|-----4-5-4-------|-----4-5-7---9---| chord at the beginning of
Ab|-7-----------5---|-7---------------| each measure, then feeds back
Eb|-----------------|-----------------| until the new measure.

verse riff:
Eb|---------------------|-----------------------------|
Bb|---------------------|-----------------------------|
Gb|---------------------|-----------------------------|
Db|-9---------9---------|-9---------12-12-12-12-12-12-|
Ab|-7---------7---------|-7---------10-10-10-10-10-10-|
Eb|-----0-0-0-----0-0-0-|-----0-0-0-------------------|
pm--> pm--> pm-->

Notes: All 'G's: -x-10-12-12-x-x-

-songflow-
burly drum intro...
G w/solo
verse riff (8x)
G A# D# (4x) w/fills
E (4x) w/feedback and hammer
bassline (2x)
E (3x) w/feedback and hammer
E (bass only)
verse riff (first measure only; 2x) + verse riff
verse riff (4x) w/solo
verse riff (8x)
G A# D# (4x) w/fills
verse riff (4x) w/solo
verse riff (8x)
G A# D# (4x) w/fills
E (2x) w/organ until end
bassline
E (2x) w/feedback and hammer
E w/hammer

OptimusPrime

Toegevoegd door OptimusPrime op zo 01 dec, 2002 9:30 am

Auteur: ?
Componist: ?
Uitgever: Def American Recordings, Inc.
Uitgegeven in: 1992
Taal: Engels

Reacties

CommonCrawl [Bot]

Volg Muzikum