Danzig

Danzig
Long Way Back From Hell (Guitar tab)

LONG WAY BACK FROM HELL BY:GLENN DANZIG
intro
TAB BY lvhardflip@Aol.com (mike nickerson)
e:-----------------------------------------------------------------------|
a:-----------------------------------------------------------------------|
d:-----------------------------------------------------------------------|
g:---9-----7-------9--------7-----------12---------9-----------12---------------|
a:---9----7-------9-------7-----------12---------9----------12-------------------|
E:--7----5-------7-------5---------10----------7----------10---------------------| repeat 2 times

chourus
e:-----------------------------------------------------------------------|
a:-----------------------------------------------------------------------|
d:------------10------9-----------------10-------9----------------------------|
g:---9------10------9--------9-------10-------9--------------------------------|
a:---9-----8------7--------9-------8--------7---------------------------------|
E:--7--------------------7------------------------------------------------|
bridge
e:-------------------------------------------------------{-----------------------
a:--------------------------------------------------------{----------------------
d:--------------------------------------------------------{-----------------------
g:---9----------7---------------9------------------------{-----99----9----99----
a:---9--------7--------------9---------------------------{----99----9----99------
E:--7-------5-------------7------------------------------{---77---7---77---------
above at 4:02
solo
figure that out your self buddy thats to hard for 14 year old


thanks for looking at my tab
any corrections email me at lvhardflip@aol.com

OptimusPrime

Toegevoegd door OptimusPrime op zo 01 dec, 2002 9:30 am

Auteur: Glenn Danzig
Componist: Glenn Danzig
Uitgever: Def American Recordings, Inc.
Uitgegeven in: 1994
Taal: Engels

Reacties

CommonCrawl [Bot]

Volg Muzikum