Danzig

Danzig
Naked Witch (Guitar tab)

Date: Thu, 26 Sep 2002 11:28:14 -0700 (PDT)
From: Jaymz
Subject: d/danzig/naked_witch.tab

This song is awesome. It's based largely on the D
blues scale (D F G Ab A C D) and is really not that
hard to play.

Anyway, here it is.

Tuning: Dropped-D down a step
low to high: C G C F A D

Intro:

C --------------X-X-X-X
G --12-10-12-10-X-X-X-X-10-12-
C 9-------------X-X-X-X-------

C --------------X-X-X-X
G --12-10-12-10-X-X-X-X-10-
C 9-------------X-X-X-X-12-


X means to fret-hand mute. You don't have to hit all 3
strings, just make sure you get that scraping sound

after that little riff:

C 2-2-2---2-2-2-5-7-2-2-2---2-2-2-5-
G 2-2-2---2-2-2-5-7-2-2-2---2-2-2-5-
C ----------------------------------
F ------3-----------------3---------

C 2-------0-0-
G 2-------0-0-

Now, this last riff was the hardest to figure out. If
you've read the "I Luciferi" tab you know this already
but if this is wrong (I'm doing it from memory and I
don't have my guitar handy) email me with corrections
or just tell me it's wrong. I'll fix it.

C 2---------------------
G 2---------------7-5-7-
C --9-8-5-7-5-7-5-----9-

C ---------------------
G ---------------7-5-7-
C -9-8-5-7-5-7-5-----9-

Anyway, that should be it. Questions, comments,
suggestions, etc. just email me.

Peace out

-Jaymz

OptimusPrime

Toegevoegd door OptimusPrime op za 16 nov, 2002 2:21 am

Auteur: ?
Componist: ?
Uitgever: Evilive Records
Uitgegeven in: 2002
Taal: Engels
Beschikbaar op: 777 I Luciferi (2002)

Reacties

CommonCrawl [Bot]

Volg Muzikum