Danzig

Danzig
Tired Of Being Alive (Guitar tab)

From: "Kev Short"
Subject: d/danzig/tired_of_being_alive.tab
Date: Mon, 10 Jun 2002 14:08:42 +0100

Song: Tired Of Being Alive
Band: Danzig
Album: Danzig II: Lucifuge
Tabbed By: Kev Short (kevshort@ntlworld.com)=20
Tuning: Standard

Right here we are folks. There are various fills throughout this but I =
couldn't figure them out, John Christ is a pretty good guitarist. Also =
the solo was near impossible to even begin to tab so all I recommend is =
that you improvise with an Em pentatonic on the 12th fret, it'll sound =
ok I'm sure. Anyway here goes, not much regard for timing since I did =
this in notepad and not a tabbing software thing. The song has a pretty =
easy song structure and its really easy to get so just listen to it and =
work out how many times the riffs are played.

Intro Lead Part 1:
E|-----------------------------------------------------------|
B|-----------------------------------------------------------|
G|--9b10~~~~-9b10-9b10-9b10-9b10-9b10-9b10-9b10r9p7----------|
D|--------------------------------------------------9p7~~~~~-|
A|-----------------------------------------------------------|
E|-----------------------------------------------------------|

Intro Lead Part 2 (dont pick the 15th fret slide):
E|--------|---------------------|
B|--------|---------------------|
G|-----7/-|-/9b10r9p7-----------|
D|-7-9----|-----------9~-/15\---|
A|--------|---------------------|
E|--------|---------------------|

Intro Riff Rhythm (play during first section of part two during the =
slide). Dont pick the 10th fret or the open E:
E|--------------|
B|--------------|
G|--------------|
D|-4--5---------|
A|-4--5---------|
E|-2--3-/10\0---|

Main Riff:
E|------------------------------------------|
B|------------------------------------------|
G|--2-4----7---2-4----9--7--2-4----7--------|
D|--2-4----7---2-4----9--7--2-4----7--5--7--|
A|--0-2--2-5---0-2--2-7--5--0-2--2-5--5--7--|
E|------------------------------------3--5--|
PM . . .
"Dont Care, if 'n' you die..."

Chorus Riff Part 1:
E|--------------------------------------------------------------|
B|--------------------------------------------------------------|
G|--------------------------------7----7------------------------|
D|--4----4---------5----5---------7-77-7--7-7-7--7----7---------|
A|--4-44-4--4-4-4--5-55-5--5-5-5--5-55-5--5-5-5--7-77-7--7-7-7--|
E|--2-22-2--2-2-2--3-33-3--3-3-3-----------------5-55-5--5-5-5--|
PM .. .. .. .. =20
"And I'm tired of being alive..."

Chorus Riff Part 2:
E|--------------------------------------------------------------|
B|--------------------------------------------------------------|
G|--------------------------------7----7------------------------|
D|--9----9---------5----5---------7-77-7--7-7-7--7----7---------|
A|--9-99-9--9-9-9--5-55-5--5-5-5--5-55-5--5-5-5--7-77-7--7-7-7--|
E|--7-77-7--7-7-7--3-33-3--3-3-3-----------------5-55-5--5-5-5--|
PM .. .. .. .. =20
"And I'm tired of their bleeding light..."

Solo:
Ehhh no :)

The rhythm for it is just the main riff.

Ending:
Play the main riff only a bit faster and with two muted 2 (b notes) on =
the A string. Then finish with this:
E|-----------|
B|-----------|
G|--7--5--2--|
D|--7--5--2--|
A|--5--3--0--|
E|-----------|

Notation:
9b10 - Bend the 9th fret upto 10th fret.
7~~~ - Hold the note on the 7th fret.
9b10r9 - Bend the 9th fret to the 10th fret then release the bend.
9p7 - Play the 9th fret then pull off to the 7th fret.
PM . - Palm mute the note that the . is under.
/ - Slide up.
\ - Slide down.

OptimusPrime

Toegevoegd door OptimusPrime op za 31 aug, 2002 9:31 am

Auteur: ?
Componist: ?
Uitgever: Def American Recordings, Inc.
Uitgegeven in: 1990
Taal: Engels

Reacties

CommonCrawl [Bot]

Volg Muzikum