Eagle-Eye Cherry

Eagle-Eye Cherry
Save Tonight (Bass tab)

BTAB: Save Tonight
Artist: Eagle Eye Cherry
Album: Unknown
Author: Rattman (jratt0@hotmail.com)

**Padrino's Bass Tab Exclusive!**

If you know this songs real name let me know.

Verse:
G---------------------------------
D---------------------------------
A-0-0-0-0---------3-3-3-3---------
E---------1-1-1-1---------3-3-3-3-

Chorus:
G-------------------------
D-------------------------
A-0-0-0-0---------3-3-5-3-
E---------1-1-1-1---------

Taken from Padrino's Bass Tab Archive: http://members.xoom.com/jszalma/

OptimusPrime

Toegevoegd door OptimusPrime op zo 01 dec, 2002 9:46 am

Auteur: ?
Componist: ?
Uitgever: ?
Taal: Engels

Reacties

CommonCrawl [Bot]

Volg Muzikum