Slipknot
The Blister Exists (Guitar tab)

The Blister Exists
Album: Vol. 3 (The Subliminal Verses)
Artist: Slipknot

This song is in drop-B tuning (B F# B E G# C#)

/ = Slide

b = Bend

Intro

|------------------------------------------------------------------------------|
|------------------------------------------------------------------------------|
|------------------------------------------------------------------------------|
|-1-1-3-3-3-1-1-3-3-3-1-1-3-3-3-2b-3-3-3-2b-3-3-3-2b-3-3-3-2b-3-3-3-1-1-3-3-3--|
|-1-1-3-3-3-1-1-3-3-3-1-1-3-3-3-2b-2-3-3-2b-3-3-3-2b-3-3-3-2b-3-3-3-1-1-3-3-3--|
|-1-1-3-3-3-1-1-3-3-3-1-1-3-3-3-2b-3-3-3-2b-3-3-3-2b-3-3-3-2b-3-3-3-1-1-3-3-3--|



Verse 2

|------------------------------------------------------------------|
|------------------------------------------------------------------|
|------------------------------------------------------------------|
|-1-1-1-3-1-1-1-3-1-1-1-3-1-1-1-3-1-1-1-3-1-1-1-3-1-1-1-3-1-1-1-3--|
|-1-1-1-3-1-1-1-3-1-1-1-3-1-1-1-3-1-1-1-3-1-1-1-3-1-1-1-3-1-1-1-3--|
|-1-1-1-3-1-1-1-3-1-1-1-3-1-1-1-3-1-1-1-3-1-1-1-3-1-1-1-3-1-1-1-3--|

Verse 3

|------------------------------------------------------------------|
|------------------------------------------------------------------|
|------------------------------------------------------------------|
|-1-1-1-2-1-1-1-2-1-1-1-2-1-1-1-2-1-1-1-2-1-1-1-2-1-1-1-2-1-1-1-2--|
|-1-1-1-2-1-1-1-2-1-1-1-2-1-1-1-2-1-1-1-2-1-1-1-2-1-1-1-2-1-1-1-2--|
|-1-1-1-2-1-1-1-2-1-1-1-2-1-1-1-2-1-1-1-2-1-1-1-2-1-1-1-2-1-1-1-2--|

Verse 4

|--------------------------------------------|
|--------------------------------------------|
|-5-5-5-5-3-3-3-3/8-5-5-5-5-3-3-3-3/8/5/8/5--|
|--------------------------------------------|
|--------------------------------------------|
|--------------------------------------------|

Verse 5

|--------------------------------|
|--------------------------------|
|--------------------------------|
|-1-1-1-1-1-1-1-1-1-1/3/1/3/1/3--|
|-1-1-1-1-1-1-1-1-1-1/3/1/3/1/3--|
|-1-1-1-1-1-1-1-1-1-1/3/1/3/1/3--|

Verse 6 (insane like drum/guitar solo thing)

|-------------------------------------|
|-------------------------------------|
|-------------------------------------|
|-3-2--1-1-1-1-1-1-1-1-1-1-1-1-1-1-1--|
|-3-2--1-1-1-1-1-1-1-1-1-1-1-1-1-1-1--|
|-3-2--1-1-1-1-1-1-1-1-1-1-1-1-1-1-1--|

Song Goes As Follows:

Intro

Verse 2

Verse 3

Verse 4

Verse 3

Verse 4

Verse 2

Verse 3

Verse 5

Verse 6

Verse 3

Verse 5

Verse 5

Verse 6

  • bubbas

    Toegevoegd door

    bubbas op do 02 sep, 2004 11:47 am

  • <
Copyrights
Auteur: ?
Componist: ?
Uitgever: ?
Meer details
Taal: Engels
Beschikbaar op: Vol. 3: (The Subliminal Verses) (2004)

Reacties

CommonCrawl [Bot]

Volg Muzikum