Fugees

Fugees
No Woman No Cry Ver 3 (Guitar tab)

The Fugees - No Woman No Cry

The notes I've marked with a * are played staccato (that means you remove your finger
from the fret right after you have hit the tone but you still touch the string)
I'm quite sure about the verse. For the chorus I took the other tabs from this site
and changed them the way I think it's played, but I think it still needs correction,
so don't hesitate to send me your suggestions!
richard.bleil@web.de

GUITAR

Verse:
E -----0-----------3-----------0----------------------|
B -----1-----------3-----------1----------------------|
G -----0-----------0-----------2----------------------|
D --------------------------------0--2--3*-3--2*-2----|
A --3-----------------2--3--0-------------------------|
E --------0--1--3-------------------------------------|


Chorus:
E ------3-----------1-----1------3--------------3-------------|
B ------1-----------1-----1------1--------------1-------------|
G ----0-0---------2-2---2-2----0-0------------0-0-------------|
D --------------------3-------------3--2--0-------------------|
A --3-----2--3--0------------3---------------3--------0--2----|
E -------------------------------------------------3--------3-|



BASS (corrections also desired!)


Verse:
G--------------------|
D--------------3--2--|
A--3--2--3--0--------|
E--------------------|


chorus:
G----------------------------------|
D--------------3-------3--2--0-----|
A--3--2--3--0-------3-----------3--|
E----------------------------------|

OptimusPrime

Toegevoegd door OptimusPrime op zo 01 dec, 2002 9:49 am

Auteur: ?
Componist: ?
Uitgever: ?
Taal: Engels

Reacties

CommonCrawl [Bot]

Volg Muzikum