Blind Melon

Blind Melon
Vernie (Guitar tab)

Author/Artist: Blind Melon
Title: Vernie
Album: Soup
Transcribed by: Rick S.
Email: ricksloukji@hotmail.com

Great song about Shannon's Grandmother.

------------------------------------------------------------------------------
------------------------------------------------------------------------------
----------9-------------------------------------------------------------------
------7/9--9-7----------------------------------------------------------------
-2----------------------------------------------------------------------------
-0----------------------------------------------------------------------------
Play this three times

------------------------------------------------------------------------------
------------------------------------------------------------------------------
------------------------------------------------------------------------------
--777777-444444---------------------------------------------------------------
--555555-222222---------------------------------------------------------------
------------------------------------------------------------------------------
Exit the Intro with this

------------------------------------------------------------------------------
------------------------------------------------------------------------------
-9-9------9---7------9--------------------------------------------------------
--99--7/9---9----7/9---9--v7--------------------------------------------------
---7--------------------------------------------------------------------------
------------------------------------------------------------------------------
v on the 7 indicates a vibrato

------------------------------------------------------------------------------
-------7----------------------------------------------------------------------
-7---7---7----111111----------------------------------------------------------
-7-7-------7--222222----------------------------------------------------------
-5------------222222----------------------------------------------------------
--------------000000----------------------------------------------------------
After this, repeat above bar then play bottom bar

------------------------------------------------------------------------------
------------------------------------------------------------------------------
-16/14-14/13-13/11/13-13------------------------------------------------------
------------------------------------------------------------------------------
------------------------------------------------------------------------------
------------------------------------------------------------------------------
This part is hard to hear over the bass line, but it's there.

--------------------2/3-2-0-0-00----------------------------------------------
-7-9/7-7---5-7/5-5--2-3-2-2-2-22----------------------------------------------
-8-----8---6-----6--3-4-3-2-2-22----------------------------------------------
-9---------7-----7--4-5-4-2-2-22----------------------------------------------
------------------------------------------------------------------------------
------------------------------------------------------------------------------
Play this over the hee hee hee hee part

-b15-15-15-12--11/12----------------------------------------------------------
---------------------14-12--9/10/9/10/9---------------------------------------
----------------------------------------11/9----------------------------------
------------------------------------------------------------------------------
------------------------------------------------------------------------------
------------------------------------------------------------------------------
after the drum kicks in, guitar 2 plays this. b indicates a gradual bend

------------------------------------------------------------------------------
----4/5----------------12/14/12----4/5--------------12/14/12-b14-12-----------
--4-----6----11/9/11/9------------4----6--11/9/11/9------------------1--------
---------------------------------------------------------------------2--------
---------------------------------------------------------------------2--------
---------------------------------------------------------------------0--------
The "I wish I could Be" part

OptimusPrime

Toegevoegd door OptimusPrime op zo 01 dec, 2002 8:39 am

Auteur: ?
Componist: ?
Uitgever: ?
Taal: Engels

Reacties

CommonCrawl [Bot]

Volg Muzikum