Bread

Bread
Make It With You Ver 2 (Guitar chord)

Song Title: Make it with you
Artist: Bread


Intro : E F#m E F#m

Verse 1 : E F#m E F#m
A G#m F#m B

Verse 2 : E F#m E F#m
A G#m C# B
E F#m E A E F#m F#m

Verse 3 : E F#m E F#m
A G#m F#m B

Verse 4 : E F#m E F#m
A G#m C# B
E F#m E A E F#m F#m

Solo : E F#m E F#m (not too sure about the chords
E B F#m G#m here)

Verse 5 : E F#m E F#m
A G#m C# B
E F#m E A E F#m F#m

E F#m E F#m...fade

Solo

E-------------------------------------------------------------
B---4s5s4s5s4--------------------4s5s4s5s4--------------------
G-----------------4--------------------------4----------------
D--------------------6--4-6-6-------------------6--4-6-2------
A-------------------------------------------------------------
E-------------------------------------------------------------

E---------------------------------------
B--5-5-5-4---4-5-4----------------------
G----------6-------4---8s6s4------------
D----------------------------4-6-6------
A---------------------------------------
E---------------------------------------

OptimusPrime

Toegevoegd door OptimusPrime op zo 01 dec, 2002 8:29 am

Auteur: ?
Componist: ?
Uitgever: ?
Taal: Engels

Reacties

CommonCrawl [Bot]

Volg Muzikum