Bowling For Soup

Bowling For Soup
Emily (Guitar tab)

Hi this is my first tab, im not a moron who will say
this tyab is 100% accurate becasue they never are but
here it is anyway.
Send complaints to unreal1987@hotmail.com




Intro.... End of intro

D----------9-9-----------7-7-7 ---------
A----7-7---7-7---9-9-9---5-5-5 x2 --5/4-5/4
E----5-5---7-7---7-7-7---5-5-5 --------

Verse...
It wasnt supposed to be like this...

D----7-7-7-7-7-7-7-7-7-7-7-7-7-7-7-7-7-7-
A----7-7-7-7-7-7-7-7-7-7-7-7-7-7-7-7-7-7-
E----5-5-5-5-5-5-5-5-5-5-5-5-5-5-5-5-5-5-
P.M.................

D----6-6-6-6-6-6---9-9-9-9-9-9-9-9---7-7-7-7-7-7
A----4-4-4-4-4-4---9-9-9-9-9-9-9-9---5-5-5-5-5-5
E------------------7-7-7-7-7-7-7-7--------------


Chorus......

Emily.... AH AH AH

D----7-7---9-9-9---9-9-9---7-7-7
A----7-7---7-7-7---9-9-9---7-7-7
E----5-5---7-7-7---7-7-7---5-5-5

When you threw me away...

D----7-7---9-9-9---9-9-9---7-7-7--------
A----7-7---7-7-7---9-9-9---7-7-7--5/4-5/4
E----5-5---7-7-7---7-7-7---5-5-5--------
P.M.......................

OptimusPrime

Toegevoegd door OptimusPrime op zo 01 dec, 2002 8:30 am

Auteur: ?
Componist: ?
Uitgever: ?
Taal: Engels

Reacties

CommonCrawl [Bot]

Volg Muzikum