Bowling For Soup

Bowling For Soup
On And On About You (Guitar tab)

INTRO

Guitar 1

E------------------------------------------------------------------------------------------------------------
B------------------------------------------------------------------------------------------------------------
G------------------------------------------------------------------------------------------------------------
D---10---5---10---5---7---3---7---5---------------------------------------------------------------------
A---10---5---10---5---7---3---7---5---------------------------------------------------------------------
E----8---3----8---3---5---1---5---3---------------------------------------------------------------------
listn 2 CD to get rhythm for the power chords
Guitar 2

E------------------------------------------------------------------------------------------------------------
B------------------------------------------------------------------------------------------------------------
G---5h7---9---10--9--7-7---9---5----5-12-10-9-9-7-5p4-2/9-3p2-0-7-9b7------------------
D--------------------------------x2----------------------------------------------------------------------
A------------------------------------------------------------------------------------------------------------
E------------------------------------------------------------------------------------------------------------

Guitar 1

E------------------------------------------------------------------------------------------------------------
B------------------------------------------------------------------------------------------------------------
G------------------------------------------------------------------------------------------------------------
D�10-10-10-10----10-10-10-10---10-10-10-10-10---10-10-10-10-10-10-10-----etc.-------------------- ------ --
A�10-10-10-10----10-10-10-10---10-10-10-10-10---10-10-10-10-10-10-10------------------
E---8---8---8-----8--8�-8�-8----8�-8�-8�-8�-8�---8�-8�-8--8�-8�-8�-8-----------------

Fig A
E------------------------------------------------------------------------------------------------------------
B------------------------------------------------------------------------------------------------------------
G------------------------------------------------------------------------------------------------------------
D---10---3---5-5------------------------------------------------------------------------------------------
A---10---3---5-5------------------------------------------------------------------------------------------
E----8---1---3-3------------------------------------------------------------------------------------------

Fig B (verse)
E------------------------------------------------------------------------------------------------------------
B------------------------------------------------------------------------------------------------------------
G------------------------------------------------------------------------------------------------------------
D---10-----10-10---3-3-3-3-3------------------------5-5-5-5-------------------------------------------------
A---10-----10-10---3-3-3-3-3-------x4---------------5-5-5-5-------etc----------------------------------------
E----8------8--8---1-1-1-1-1------------------------3-3-3-3---------------------------------------------------
pm.......listn 2 cd to get how many



Fig C (chorus)
E------------------------------------------------------------------------------------------------------------
B------------------------------------------------------------------------------------------------------------
G------------------------------------------------------------------------------------------------------------
D-10-10-10-10-10-10-10-10-5-5-5-5-5-5-5-5-10-10-10-10-10-10-10-10-5-5-5-5-5-5-5-5----------------------------
A-10-10-10-10-10-10-10-10-5-5-5-5-5-5-5-5-10-10-10-10-10-10-10-10-5-5-5-5-5-5-5-5----------------------------
E--8--8--8--8--8-�8--8--8-3-3-3-3-3-3-3-3�-8�-8--8�-8�-8--8�-8�-8-3-3-3-3-3-3-3-3----------------------------

E------------------------------------------------------------------------------------------------------------
B------------------------------------------------------------------------------------------------------------
G------------------------------------------------------------------------------------------------------------
D-7-7-7-7-7-7-3-3-3-3-3-3-7-7-7-7-7-7-7-7-7-7-5-5-5-5-5-5-5-5-5-5-5-5-5-5-5-5--------------------------------
A-7-7-7-7-7-7-3-3-3-3-3-3-7-7-7-7-7-7-7-7-7-7-5-5-5-5-5-5-5-5-5-5-5-5-5-5-5-5--------------------------------
E-5-5-5-5-5-5-1-1-1-1-1-1-5-5-5-5-5-5-5-5-5-5-3-3-3-3-3-3-3-3-3-3-3-3-3-3-3-3--------------------------------

SOLO
E------------------------------------------------------------------------------------------------------------
B------------------------------------------------------------------------------------------------------------
G-9-5--9-7-9-10-9-10-9-7-5-4b-4-5-9-10-9-7-5-4-5-7-4b--------------------------------------------------------
D-----5-----------------------------------------------------------------------------------------------------
A------------------------------------------------------------------------------------------------------------
E------------------------------------------------------------------------------------------------------------

Song order

INTRO
FIG A
FIG B x 2
FIG C
FIG A
FIG B
FIG C
FIG A
SOLO
PLUCKING CHORUS
FIG C x 2
FIG A

OptimusPrime

Toegevoegd door OptimusPrime op zo 01 dec, 2002 8:30 am

Auteur: ?
Componist: ?
Uitgever: ?
Taal: Engels

Reacties

CommonCrawl [Bot]

Volg Muzikum