Bowling For Soup

Bowling For Soup
Bitch Song Ver 2 (Guitar tab)

TabCrawler - b | bowling-for-soup | bowling-for-soup-the-bitch-song.txt

HomeNew TabsGuitar ForumsLessonsICQ BuddiesPremier Sites


Wed Aug 29, 2001 TabCrawler.Com - Use It to Play Something

BAND-BOWLING FOR SOUP
SONG-THE BITCH SONG
ALBUM-LETS DO IT FOR JONNY

Pm = Palm Mute
/ = slide down \ = slide up
>>>>>>>= pick slide

THIS IS MY FIRST TAB EVER! YOU SHOULD FIND ITS MORE OR LESS PERFECT,A
COULDNT
WORK OUT THE SECOND GUITAR BIT FOR THE FIRST BIT THOUGH,,ANY PROBLEMS MY
E-MAIL
IS.. LETSGETLAYED@HOTMAIL.COM......ENJOY IT!! ITS THE FIRST VERSION IVE
SEEN..
Tabbed by CRAIG BOOTH



e-----------------------------------
b-----------------------------------
g-----------------5-----------------
d---5------5------5-----------------
a---5-STOP-5-STOP-3-LET RING--------
E---3------3------------------------


e--------------------I---------------------------------------------
b--------------------I---------------------------------------------
g---------7----5-----I----------7------5---------------------------
D---5-----7-X5-5-X10-I---5------7-STOP-5-LET RING->>>>>>>>>>>>>>>>>
a---5-X5--5----3-----I---5-STOP-5------3---------------------------
E---3----------------I---3-----------------------------------------
is it okay if i speak.....
e-------------------------------------------------------
b-------------------------------------------------------
g--------------77XXXX----5------------------------------
d---55XXXX-----77XXXX-PM-5-LET RING->>>>>>>>>>>>>>>>>>>>
a---55XXXX-PM--55XXXX----3------------------------------
E---33XXXX----------------------------------------------


e---------------------------------------------------------------------------
b---------------------------------------------------------------------------
g---------7-----5------------7-----5------------7-----5-----------7-----5---
d---5-----7-X5--5-X10--5-----7-X5--5-X10--5-----7-X5--5-X10--5----7-X5--5-X10
a---5-X5--5-----3------5-X5--5-----3------5-X5--5-----3------5-X5-5-----3----
E---3------------------3------------------3------------------3---------------
your a bitch but.......

e----------------------------------------------------------------------------
b----------------------------------------------------------------------------
g---------7-----5----------7----5-----------7----5-----------7-----5---------
d---5-----7-PM--5-PM--5----7-X5-5-X10--5----7-X5-5-X10--5----7-X5--5-X10-----
a---5-PM--5-----3-----5-X5-5----3------5-X5-5----3------5-X5-5-----3---------
E---3-----------------3----------------3----------------3--------------------

REPEAT A BUNCH OF TIMES,, YOU WILL GET THE RHYTHEM IF YOU LISTEN TO THE
SONG..ITS QUITE EASY.

INTERLUDE THINGY,,,

e-------------------------------------------------
b-------------------------------------------------
g-------------------------------------------------
d-------------------------------------------------
a---9----5----7--3-->>>>>>>>>>>>>>>>REPEAT A FEW TIMES
E-------------------------------------------------



e--------------------------------------------------------
b--------------------------------------------------------
g---------------7----------5-----------------------------
d---5-----------7-LET RING-5-LET RING---REPEAT A FEW TIMES
a---5-LET RING--5----------3-----------------------------
E---3----------------------------------------------------
la,la...la
e-------------------------------------------------
b-------------------------------------------------
g---------------7----------5----------------------
d---5-----------7-LET RING-5-STOP-----------------
a---5-LET RING--5----------3----------------------
E---3---------------------------------------------
SO WHY DONT YOU STAY......
e--------------------------------------------------
b--------------------------------------------------
g--------------------------------------------------
d--------------------------------------------------
a--THEN JUST MAKE A LOAD OF SHIT UP!---------------
E--------------------------------------------------


THATS ABOUT IT FOLKS..AGAIN LISTEN TO THE SONG FOR ORDER AND RHYTHEM.

CRAIG BOOTH......UK

OptimusPrime

Toegevoegd door OptimusPrime op zo 01 dec, 2002 8:30 am

Auteur: ?
Componist: ?
Uitgever: ?
Taal: Engels

Reacties

CommonCrawl [Bot]

Volg Muzikum