The Bouncing Souls

The Bouncing Souls
True Believers (Guitar tab)

Boucing souls - True Believers
Tabbed by Eyesradiolies
Intro
Strum each powerchord 1 time
-----------------------------
-----------------------------
-10---5---12-----------------
-10---5---12----------------- X2
-8----3---10-----------------
-----------------------------

Verse

Riff A
----------------------------
----------------------------
-10---5--------------------- X2
-10---5---5-----------------
-8----3---5-----------------
----------3-----------------

The Guitar #2 play this over Riff A
-----------------------------------------------------------------
-----------------------------------------------------------------
-----------------------------------------------------------------
-----------------------------------------------------------------
---------------------------7--5*-----5-----5---7--5*-----8-8-8---
--7*---6--7*--6--7--6--7----------8-----8-------------8--------8-

------------------------------------------------------------------
------------------------------------------------------------------
--10*--9*--5---7*---5--7--5--7---9--7*--5---10*--5----------------
------------------------------------------------------------------
------------------------------------------------------------------
------------------------------------------------------------------

repeat Riff A 2 times and then

-----------------------------
-----------------------------
-----5-----------------------
-5---5---5-------------------X4
-5---3---5-------------------
-3-------3-------------------


There is some bass with no guitar for sometimes and then repaeat Riff A X5 (Palm muted sometimes)


After play that riff again 4 times
-----------------------------
-----------------------------
-----5-----------------------
-5---5---5-------------------
-5---3---5-------------------
-3-------3-------------------

OptimusPrime

Toegevoegd door OptimusPrime op zo 01 dec, 2002 8:30 am

Auteur: ?
Componist: ?
Uitgever: ?
Taal: Engels

Reacties

1 bericht

CommonCrawl [Bot]
Anonymous
ma 23 jun, 2003 11:20 pm
how would you play this...
-9--
-7--
-0--
-0--
-0--
-0--

would you strumm 970000 all at once?
1 bericht • Pagina 1 van 1

Volg Muzikum