Boston

Boston
More Than A Feeling Ver 2 (Guitar tab)

This is the complete song and is over 11 pages long so watch the printer.
Thanx Julian.
E-mail me at Julianayres@hotmail.com for more info.


Gtr I (E A D G B E) - 'Acoustic'
Gtr II (E A D G B E) - 'Distortion Gtr'
Gtr III (E A D G B E) - 'Heavy Gtr II'
Gtr IV (E A D G B E) - 'Clean electric'
Gtr V (E A D G B E) - 'Extra Gtr'

Intro
Moderate Rock Q=116
4/4
Gtr I
E E E E E E E E E E E E E E E E
||--------3-(3)-2-----|------------------||
||o---3------3----3---|-----3-----3---3-o||
||------2-----------0-|---0-----0--------||
||--0-----------------|------------------||
||o-------------------|-3-----2---------o||
||--------------------|-------------3----||
|-Rhy Fig 1 end Rhy Fig 1-|

w/Rhy Fig 1 x2
Gtr II
W Q. E +Q Q
|---------------------|-------------------------------|
|------------------|-----------()----------|
|------------------|-------()------|
|------------------|-------------------------------|
|---------------------|-------------------------------|
|---------------------|-------------------------------|


~~~~~~~~~~~~~~~~~~
H +H +W
|-----------------------|----------------------||
|--------()-------|-()----------------||
|--------()-------|-()----------------||
|--------()-------|-()----------------||
|-----------------------|----------------------||
|-----------------------|----------------------||


1st Verse
Rhy Fig 1 3



E E E E E E E E E E E E E E E E E E E E E E E E
|-------3-(3)-2-----|---0-----0-----3-|---------3---------|
|---3------3----3---|-----3-----3-----|-----3-----3---0---|
|-----2-----------0-|-------0-----0---|---0---0-----0-----|
|-0-----------------|-----------------|-------------------|
|-------------------|-3---------------|-2-----------------|
|-------------------|-----------------|-------------------|


Gtr III
~~~~
a +H a Q S +S +E
|-----------------------------------------------|
|-12b13==(12)-------(12)r-12---12b13==(12)r(12)-|
|-----------------------------------------------|
|-----------------------------------------------|
|-----------------------------------------------|
|-----------------------------------------------|
|
| Gtrs I, II
| E E E E E E E E
|-----------------------------------------------|
|---------------1-1-------------0---------------|
|-------------2---2--------------------------0--|
|-------------2---2----------2------------------|
|----------0------0-----------------------------|
|--------------------------3--------------------|


~~ ~~
H a +E +E S S E W
|-------------------------------------||-------------------|
|-10-------12b13==(12)r=(12)-10h12-10-||-------------------|
|-------------------------------------||-12----------------|
|-------------------------------------||-------------------|
|-------------------------------------||-------------------|
|-------------------------------------||-------------------|
|
| E E E E a +E E E E Q Q e e Q
|------2----------------------2-----3-||-------------------|
|--------3--------------------3-----3-||-------------------|
|----2--------------------2---2-----2-||-------------------|
|--0--------3b4====(3)r---0---0-----0-||--5--5--/10-10-10--|
|-------------------------------------||--5--5--/10-10-10--|
|-------------------------------------||--3--3---/8--8--8--|
|-Rhy Fig 2

>
~~~~
+W W W
|------------------------|------------------|---------------------||
|------------------------|------------------|---------------------||
|-(12)-------------------|------------------|---------------------||
|------------------------|------------------|---------------------||
|------------------------|------------------|---------------------||
|------------------------|------------------|---------------------||
|
| E S S E E S S E E E Q Q e e Q E S S E E S S E E E
|------------------------|------------------|---------------------||
|------------------------|------------------|---------------------||
|---9--x-x-9-9-x-x-7-7-5-|------------------|-9-x-x-9-9-x-x-7-7---||
|---9--x-x-9-9-x-x-7-7-5-|-5--5/--10-10-10--|-9-x-x-9-9-x-x-7-7---||
|---7--x-x-7-7-x-x-5-5-3-|-5--5/--10-10-10--|-7-x-x-7-7-x-x-5-5-0-||
|------------------------|-3--3/---8--8--8--|---------------------||
end Rhy Fig 2-||-Rhy Fig 3 end Rhy Fig 3-|

Chorus
$
Gtrs I, II
Rhy Fig 3 x2


To Coda
Q Q e e Q E S S E E S S E E E Q Q e e Q W
|------------------|---------------------|------------------|-----------|
|------------------|---------------------|------------------|-8---------|
|------------------|-9-x-x-9-9-x-x-7-7---|------------------|-8---------|
|-5--5/--10-10-10--|-9-x-x-9-9-x-x-7-7---|-5--5/--10-10-10--|-8---------|
|-5--5/--10-10-10--|-7-x-x-7-7-x-x-5-5-0-|-5--5/--10-10-10--|-6---------|
|-3--3/---8--8--8--|---------------------|-3--3/---8--8--8--|-----------|


Q Q +E Q. E Q E +E Q. Q. E +H Q. E +Q Q
|-!0--0--(0)-0----|-0-0--0-(0)-0----|------3-(3)----|-3----2-(2)--0---||
|-!3--3--(3)-3----|-3-2--0-(0)-2----|-0----3-(3)----|-0----3-(3)--3---||
|-!0--0--(0)-0----|-2-2--2-(2)-2----|-0----0-(0)----|-0----2-(2)--0---||
|-!2--2--(2)-2----|-2-2--2-(2)-2----|-0-------------|-0----0-(0)--0---||
|-!2--2--(2)-2----|-0-0--0-(0)-0----|-2-------------|-2---------------||
|-!0--0--(0)-0----|-----------------|-3-------------|-3----2-(2)------||
W


Gtrs I, IV
w/Rhy Fig 1 x2
Gtr II
W Q. E +Q Q
|-----------------|------------------------------|
|-----------------|-------()---------|
|-----------------|-------()------|
|-----------------|-------()---------|
|-----------------|------------------------------|
|-----------------|------------------------------|


~~~~~~~~~~~~~~~~
H +H +W
|-----------------------|--------------------||
|--------()-------|-(7)----------------||
|--------()-------|-(7)----------------||
|-----------------------|--------------------||
|-----------------------|--------------------||
|-----------------------|--------------------||


2nd Verse
Gtr I
Rhy Fig 1 x2


E E E E E E E E E E E E E E E E E E E E E E E E E E E E E E E E
|-------3-(3)-2-----|-----------------|-------3-(3)-2-----|---------0-----3--|
|---3------3----3---|-----3-----3---3-|---3------3----3---|---3-1-----3------|
|-----2-----------0-|---0-----0-------|-----2-----------0-|-------0-----0----|
|-0-----------------|-----------------|-0-----------------|------------------|
|-------------------|-3-----2---------|-------------------|-3----------------|
|-------------------|-------------3---|-------------------|------------------|


Gtr III
~~~~~
W H E E S +S +E
|-----------------|------------------------------------|
|-----------------|-12b13-------12-12-12b13==(12)r(12)-|
|-----------------|------------------------------------|
|-----------------|------------------------------------|
|-----------------|------------------------------------|
|-----------------|------------------------------------|
|
| Gtr II
| ~~~~~
| W H E E S +S +E
|-----------------|------------------------------------|
|-----------------|------------------------------------|
|-----------------|-12b14-------12-12-12b14==(12)r(12)-|
|-----------------|------------------------------------|
|-----------------|------------------------------------|
|-----------------|------------------------------------|
|
| Gtr I Gtrs I, V
| E E E E E E E E E E E E E E E E
|---------3-------|------------------------------------|
|-----3-----3---0-|---------1-1--------0---------------|
|---0---0-----0---|-------2---2---------------------0--|
|-----------------|-------2---2-----2------------------|
|-2---------------|--0--------0------------------------|
|-----------------|--------------3---------------------|


~~
H a +E +E S S E
|--------------------------------------|
|-10-------12b13==(12)r=(12)-10h12-10--|
|--------------------------------------|
|--------------------------------------|
|--------------------------------------|
|--------------------------------------|
|
| ~~
| H a +E +E S S E
|--------------------------------------|
|--------------------------------------|
|-11-------12b14==(12)r=(12)-11h12-11--|
|--------------------------------------|
|--------------------------------------|
|--------------------------------------|
|
| E E E E a +E E E E
|------2----------------------2-----3--|
|--------3--------------------3-----3--|
|----2--------------------2---2-----2--|
|--0--------3b4====(3)r---0---0-----0--|
|--------------------------------------|
|--------------------------------------|


Gtrs I, V
w/Rhy Fig 2
Gtrs II, III
~~~~~~~~~~~~~~~~~~~~~~
W +W
|-------------------|------------------------|
|-------------------|------------------------|
|-12----------------|-(12)-------------------|
|-------------------|------------------------|
|-------------------|------------------------|
|-------------------|------------------------|


w/Rhy Fig 3
~~~~~~~~~~~~~~~~~~~~~~~~~~~~
+W +W D.S. al Coda
|---------------------|--------------------------|
|---------------------|--------------------------|
|-(12)----------------|-(12)---------------------|
|---------------------|--------------------------|
|---------------------|--------------------------|
|---------------------|--------------------------|


&
Gtrs I, V
PM-----------|
H +E Q. E Q E +E Q. Q E E E E E E E E E E E E E E
|-0----(0)-0----|---0--0-(0)-0----|----------------|------------------|
|-3----(3)-3----|-3-2--0-(0)-2----|----------------|-----0---3-3-3-3--|
|-0----(0)-0----|-2-2--2-(2)-2----|-4--------------|-----0---2-2-2-2--|
|-2----(2)-2----|-2-2--2-(2)-2----|-4--4-0-2-2-2-2-|-----0-0-0-0-0-0--|
|-2----(2)-2----|-0-0--0-(0)-0----|-2--2---0-0-0-0-|-2-2-2-0-0-0-0-0--|
|-0----(0)-0----|-----------------|----------------|-3-3-3---2-2-2-2--|


Guitar Solo
H. Q W Q E E Q Q
|------------|-------------||-2---2---3-------3---|
|-3-------3--|-2-----------||-3---3-0-3-------3---|
|-2-------2--|-2-----------||-2---2-0-0-------0---|
|-2-------2--|-2-----------||-0---0-0-0-------0---|
|-0-------0--|-0-----------||---------------------|
|------------|-------------||---------3-------3---|
|
| Gtr II
| |-3-|
| W Q Q Q Q Q. E E S S S E E
|------------|-------------||---------------------|
|------------|-------------||-7-----7h8-7h8p7-5---|
|------------|----6--7--9--||-------------------7-|
|------------|-------------||---------------------|
|------------|-------------||---------------------|
|------------|-------------||---------------------|


Q. E E E E E
|--------2------------------------------2-2-----------|
|--------3------------------------------3-3-2-2-----2-|
|--------2------------------------------2-2-2-2-----2-|
|--------0------------------------------0-0-2-2-----2-|
|-------------------------------------------0-0-----0-|
|--------2------------------------------2-2-----------|
|
| |-3-|
| a +S +S +S +S +S +S E E E S S S E
|-----------------------------------------------------|
|-8b10==(8)r(8)b10==(8)r(8)b10==(8)r(8)---8-7-5h7p5---|
|---------------------------------------7-----------7-|
|-----------------------------------------------------|
|-----------------------------------------------------|
|-----------------------------------------------------|


Q E E E E E E
|-2---2----3--3--------3--3-|
|-3---3-0--3--3--------3--3-|
|-2---2-0--0--0--------0--0-|
|-0---0-0--0--0--------0--0-|
|---------------------------|
|----------3--3--------3--3-|
|
| |--3--|
| E E E E E S S S E E
|---------------------------|
|-5h7-7----8--7h=8p=7-------|
|-------7--------------9--7-|
|---------------------------|
|---------------------------|
|---------------------------|
|
| Gtr III
| |--3--|
| H E S S S E E
|---------------------------|
|---------12-10h12p10-------|
|---------------------12-11-|
|---------------------------|
|---------------------------|
|---------------------------|


Q E E +E E E E Q E E Q Q
|----------2--------2----------------|--2---2--2--3-----------3---|
|----------3--------3-2-(2)--2--2--2-|--3---3--3--3-----------3---|
|----------2--------2-2-(2)--2--2--2-|--2---2--2--0-----------0---|
|----------0--------0-2-(2)--2--2--2-|--0---0--0--0-----------0---|
|---------------------0-(0)--0--0--0-|----------------------------|
|----------2--------2----------------|------------3-----------3---|
|
| ~~~~~~ ~~~
| |--3--|
| a +E +E E E +E E E E Q. E E S S S E E
|------------------------------------|----------------------------|
|----------------------------------8-|--7------7--8--7h=8p=7------|
|--9b11===(9)r=(9)--7-6-(6)----------|------------------------9-7-|
|----------------------------7--7----|----------------------------|
|------------------------------------|----------------------------|
|------------------------------------|----------------------------|
|
| ~~~~~~ ~~~
| |--3--|
| a +E +E E E +E E E E Q. E E S S S E E
|------------------------------------|----------------------------|
|------------------------------------|----------------------------|
|-12b14==(12)r(12)-11-9-(9)--------9-|--------11-12-11h12p11-12-9-|
|---------------------------11-11-11-|-12-------------------------|
|------------------------------------|----------------------------|
|------------------------------------|----------------------------|


Q E E +E E E E
|--------------------------------------------3-|
|--------------------------------------------3-|
|----------4-----4--4-------(4)--2--2--------0-|
|----------4-----4--4-------(4)--2--2----------|
|----------2-----2--2-------(2)--0--0----------|
|----------------------------------------------|
|
| ~~~~
| |--3--|
| a +Q +Q a E E S S S E
|----------------------------------------------|
|-14b15==(14)--(14)----14r--14--12-10h12p10----|
|-------------------------------------------12-|
|----------------------------------------------|
|----------------------------------------------|
|----------------------------------------------|
|
| ~~~~
| |--3--|
| a +Q +Q a E E S S S E
|----------------------------------------------|
|-10b12==(10)--(10)---(10)r-10---8--7h=8p=7----|
|--------------------------------------------9-|
|----------------------------------------------|
|----------------------------------------------|
|----------------------------------------------|


Q E E Q E E Q E E E E E E
|--2---2-------------------|--------------------------|
|--3---3--0--3----3------0-|-------0----3-2------2-2--|
|--2---2--0--4----4------0-|-0---0-0----2-2------2-2--|
|--0---0--0--4----4------0-|-2---2-0----2-2------2-2--|
|------------2----2--------|-2---2------0-0------0-0--|
|--------------------------|-0---0--------------------|
|
| ~~~
| |-3--| |-3--|
| Q. E E E S S S E Q. E a E S S S E E
|--------------------------|--------------------------|
|--------------------------|--------------------------|
|-11--------12-11-9h11p9-7-|-9-----7-9s11-9h11p9-7-6--|
|--------12----------------|--------------------------|
|--------------------------|--------------------------|
|--------------------------|--------------------------|
|
| ~~~
| |-3--| |-3--|
| Q. E E E S S S E Q. E a E S S S E E
|--------------------------|--------------------------|
|--7---------8--7-5h=7p5---|--------------------------|
|---------7--------------7-|-9-----7-9s11-9h11p9-7-6--|
|--------------------------|--------------------------|
|--------------------------|--------------------------|
|--------------------------|--------------------------|


Gtr II
Q. E +E E Q Q. E +E E Q W
|-3-------------3---------(3)-3-3--------|-3----2-(2)---0--|-2----------------|
|-0-------------0---------(0)-0-0--------|-3----3-(3)---3--|-3----------------|
|-0-------------0---------(0)-0-0--------|-0----2-(2)-0-0--|-2----------------|
|-0-------------0---------(0)-0-0--------|-0----0-(0)-0-2--|-0----------------|
|----------------------------------------|-----------------|------------------|
|-3-------------3---------(3)-3-3--------|-3---------------|------------------|
|
| Gtr I
| ~~ ~~~~
| |--3--|
| Q S S S E a +Q. +E Q. E +E E Q E E E E E E E E
|-----------------17b19==(17)-----(17)r\-|-3----2-(2)---0--|------------------|
|-----14h15p14---------------------------|-3----3-(3)---3--|-3-----3---3-3----|
|-7------------16------------------------|-0----2-(2)-0-0--|---2-2---2-----2--|
|----------------------------------------|-0----0-(0)-0-2--|------------------|
|----------------------------------------|-----------------|------------------|
|----------------------------------------|-3---------------|------------------|
|
| Gtr IV
| ~~ ~~~~
| |--3--|
| Q S S S E a +Q. +E W E E E E E E E E
|-----------------13b15==(13)-----(13)r\-|-----------------|------------------|
|-----10h12p10---------------------------|-----------------|-3-----3---3-3----|
|-7------------12------------------------|-----------------|---2-2---2-----2--|
|----------------------------------------|-----------------|------------------|
|----------------------------------------|-----------------|------------------|
|----------------------------------------|-----------------|------------------|


>
+W +W
|-(2)---------------|--(2)--------------------------|
|-(3)---------------|--(3)--------------------------|
|-(2)---------------|--(2)--------------------------|
|-(0)---------------|--(0)--------------------------|
|-------------------|-------------------------------|
|-------------------|-------------------------------|
|
| E E E E E E E E E E E E E E E E
|-------------------|-------------------------------|
|--3------3---3-3---|--------3-------------3------3-|
|-----2-2---2-----2-|------0-----------0------------|
|-------------------|-------------------------------|
|-------------------|---3--------2------------------|
|-------------------|--------------------------3----|
|
| Gtr III
| W Q. E +Q Q
|-------------------|-------------------------------|
|----------------|-----------()------|
|----------------|-------()------|
|----------------|-------------------------------|
|-------------------|-------------------------------|
|-------------------|-------------------------------|


E E E E E E E E E E E E E E E E
|-----------------------|----------------------||
|--3------3-------3-3---|---------3-----3---3--||
|-----2-2-----2-------2-|-------0-----0--------||
|-----------------------|----------------------||
|-----------------------|---3-------2----------||
|-----------------------|-----------------3----||
|
| ~~~~~~~~~~~~~~~~~~
| H +H +W
|-----------------------|----------------------||
|--------()-------|-()----------------||
|--------()-------|-()----------------||
|-----------------------|----------------------||
|-----------------------|----------------------||
|-----------------------|----------------------||


3rd Verse
Gtr I
Rhy Fig 1 x2


E E E E E E E E E E E E E E E E E E E E E E E E E E E E E E E E
|-------3-(3)-2-----|-----------------|-------3-(3)-2-----|------------------|
|---3------3----3---|-----3-----3---3-|---3------3----3---|-3-3-3-3-3-3-3----|
|-----2-----------0-|---0-----0-------|-----2-----------0-|-0-0-0-0-0-0-0----|
|-0-----------------|-----------------|-0-----------------|------------------|
|-------------------|-3-----2---------|-------------------|-3-3-3-2-2-2-3-0--|
|-------------------|-------------3---|-------------------|------------------|
|
| Gtr II
| W W E E E E E E E E E E E E E E E E
|-------------------|-----------------|-------------------|------------------|
|-------------------|-----------------|-----------------0-|-3-3-3-3-3-3-3----|
|-------------------|-----------------|-----------------0-|-0-0-0-0-0-0-0----|
|-------------------|-----------------|-0-0-0-0--0--0-0-0-|------------------|
|-------------------|-----------------|-------------------|-3-3-3-2-2-2-3-0--|
|-------------------|-----------------|-------------------|------------------|


Gtrs I, II
Q. E +E E E E E E E E E E E E
|-0----3-(3)-3-2-0-|-------------------------------------------------|
|-3----3-(3)-3-3-3-|------3---------------3----------------3---------|
|-2----2-(2)-2-2-2-|----0-------------------------------0-----0------|
|-0----0-(0)-0-0-0-|-------------------------------------------------|
|------------------|-3------2----------------------------------------|
|------------------|-------------------------------------------------|
|
| Gtr III
| W Q. S a +S +S S a +E E +E
|------------------|-------------------------------------------------|
|------------------|-------------------------------------------------|
|------------------|--------x-9pb11==(9)-(9)-xr-9pb10==(9)-9r(9)b11==|
|------------------|-------------------------------------------------|
|------------------|-------------------------------------------------|
|------------------|-------------------------------------------------|


Q. E +H E E E E E E E E
|--------3-(3)-------|--------------------------------------|
|--3-----3-(3)-------|---------------3------------3---------|
|--2-----2-(2)-------|------------0-----------0-------------|
|--0-----0-(0)-------|--------------------------------------|
|---------------0-2--|-3-----------------2------------------|
|--------------------|-------------------------------3--3---|
| Q. E +Q E E
|
| ~~~~ ~~~~~~~~~ TP TP
| +W E a +Q +E +Q E E
|--------------------|--------------------------------------|
|--------------------|---10b12==(10)---(10)-(10)r----x\-x\--|
|-(9)r---------------|-------------------------------x\-x\--|
|--------------------|--------------------------------------|
|--------------------|--------------------------------------|
|--------------------|--------------------------------------|


Q. E +E E E E E E E E E E E E Q. E +H W W
|-2----3-(3)-3-----|-----------------|------3-(3)------|-3--------|-3----|
|-3----3-(3)-3-----|-----3-----3-----|-3----3-(3)------|-3--------|-3----|
|-2----2-(2)-2-2-0-|---0-----0-------|-2----2-(2)------|-0--------|-0----|
|-0----0-(0)-0-0---|-----------------|-0----0-(0)------|----------|-0----|
|------------------|-3-----2-----3---|-------------0-2-|-3--------|-2----|
|------------------|---------------3-|-----------------|----------|------|
Q. E +Q E E


E E E E E E Q E E E E +E E E E
|-----------------------------------|---------2-(2)---------2----|
|---------1---------0---------------|-------3-----------3--------|
|-----------------------------------|-----2---------2------------|
|-------2---2----2------------------|--0-------------------------|
|--0--------------------------------|----------------------------|
|--------------3--------------------|----------------------------|
|
| Gtr III
| ~~~~~ ~~~
| H Q S +S +E H. +E S S
|-----------------------------------|----------------------------|
|-12b13-------12---12b13==(12)r(12)-|-10--------------(10)-10h12-|
|-----------------------------------|----------------------------|
|-----------------------------------|----------------------------|
|-----------------------------------|----------------------------|
|-----------------------------------|----------------------------|
|
| Gtr V
| ~~~~~ ~~~
| H Q S +S +E H. +E S S
|-----------------------------------|----------------------------|
|-----------------------------------|----------------------------|
|-12b14-------12---12b14==(12)r(12)-|-11--------------(11)-11h12-|
|-----------------------------------|----------------------------|
|-----------------------------------|----------------------------|
|-----------------------------------|----------------------------|


E E E E +E E E E
|----------2---------(2)-------------2-||
|-------3----------------------3-------||
|-----2--------------------2-----------||
|--0-----------------------------------||
|--------------------------------------||
|--------------------------------------||
|
| ~~~
| Q. E a +E +E S S E
|--------------------------------------||
|-10------10-12b13==(12)r(12)-10h12-10-||
|--------------------------------------||
|--------------------------------------||
|--------------------------------------||
|--------------------------------------||
|
| ~~~
| Q. E a +E +E S S E
|--------------------------------------||
|--------------------------------------||
|-11------11-12b14==(12)r(12)-11h12-11-||
|--------------------------------------||
|--------------------------------------||
|--------------------------------------||

Gtrs I, II
w/Rhy Fig 2
Gtrs III, V
~~~~~~~~~~~~~~~~~~~~~~
W +W
|-------------------|------------------------|
|-------------------|------------------------|
|-12----------------|-(12)-------------------|
|-------------------|------------------------|
|-------------------|------------------------|
|-------------------|------------------------|

w/Rhy Fig 3
~~~~~~~~~~~~~~~~~~~~~~~~~~~~
+W +W
|---------------------|--------------------------||
|---------------------|--------------------------||
|-(12)----------------|-(12)---------------------||
|---------------------|--------------------------||
|---------------------|--------------------------||
|---------------------|--------------------------||


Out-Chorus
Gtrs I, II
Rhy Fig 3 x3

Rhy Fig 2

Rhy Fig 3



Q Q e e Q E S S E E S S E S S E
|------------------|--3--x-x-3-3--------------|
|------------------|--5--x-x-5-5-x-x-3--------|
|------------------|--4--x-x-4-4-x-x-2-x-x-5--|
|-5--5/--10-10-10--|--2--x-x-2-2-x-x-0-x-x-5--|
|-5--5/--10-10-10--|-------------------x-x-3--|
|-3--3/---8--8--8--|--------------------------|
|
| Gtr III ~~~
| W W
|------------------|--------------------------|
|------------------|--------------------------|
|------------------|-----------------------|
|------------------|--------------------------|
|------------------|--------------------------|
|------------------|--------------------------|


w/Rhy Fig 2 x2
~~~~~~~~~~~~~~~~~~~~~~~~~~~~~~~~~~~~~~~~~~~~~~~
+W +W
|----------------------|--------------------------|
|----------------------|--------------------------|
|-()----------------|-()--------------------|
|----------------------|--------------------------|
|----------------------|--------------------------|
|----------------------|--------------------------|


~~~~~~~~~~~~~~~~~~~~~~~~~~~~~~
+W +W
|----------------------|----------------------------||
|----------------------|----------------------------||
|-()----------------|-()----------------------||
|----------------------|----------------------------||
|----------------------|----------------------------||
|----------------------|----------------------------||


Outro
Rhy Fig 3 -> Rhy Fig 2
Rhy Fig 3 -> Rhy Fig 2

OptimusPrime

Toegevoegd door OptimusPrime op zo 01 dec, 2002 8:30 am

Auteur: ?
Componist: ?
Uitgever: ?
Taal: Engels

Reacties

CommonCrawl [Bot]

Volg Muzikum