Blue Rodeo

Blue Rodeo
Bad Timing Ver 2 (Guitar chord)

#
Capo on 2nd fret

Bad timing Blue rodeo
D C D G
e----------2-------------------------------------------------------------------------------------2----------------------------------------------3--------------
b-----------------3---------------------------------1--------------------------------------------------------3-------------------------------------------------
g----------1-------------------------------------------------------------------------------------1-------------------------------------------------------------
d---0h2-------------------------------------------------------2----------------------------------------------------------------------------------------------
a---------------------------------------------------------------------3---------------------------------------------------------------------1-------------------
e-------------------------------------------------------------------------4---------------------------------------------------------------------2----------------

C G

e-------------------------------------------------------------------------------------------------3-------------------------------------------------------------
b-------1-------------------------------------------------------------------------------------------------------------------------------------------------------
g---------------------------------------------------------------------------------------------------------------------------------------------------------------
d---------------2-----------------------------------------------------------------------------------------------------------------------------------------------
a----------------------3---------------------------------------------------------------------1------------------------------------------------------------------
e--------------------------4-----------------------------------------------------------------------2-------------------------------------------------------------

Verse 1
Hey its me what a big surprise
Calling you up from a restaurant around the bend
I just got in from way up north
I�m aching and tired now, and I could use a friend
I might be a fool to think that you do
Want to see me again

Verse 2
It�s been a while since I talked to you
Nothing wrong, just nothing ever goes as planned
Many times I thought I�d call
I didn�t have your number in my hand
I know it�s true, you�d never do
The same thing to me

Chorus :
I never meant to make you cry
And thought I know I shouldn�t call
It just reminds us of the cost
Of everything we�ve lost
Bad timing that�s all
Mayebe soon there�ll come a day
When no more tears will fall
If we each forgive a little bit
And we both look back on it
As just bad timing that�s all

Verse 3
We used to have so many plans
Something always seemed to turn out wrong
I never could catch up to you
Moving on and doing what you�ve done
I don�t know why, the harder I try
The harder it comes

Verse 4
We each forgive a little bit
When we both look back on it
Just bad timing that�s all


If you have any question's e-mail me at pro_joe30@hotmail.com

OptimusPrime

Toegevoegd door OptimusPrime op zo 01 dec, 2002 8:34 am

Auteur: ?
Componist: ?
Uitgever: ?
Taal: Engels

Reacties

CommonCrawl [Bot]

Volg Muzikum