Foo Fighters
M (Guitar tab)

Foo Fighters - M.I.A.
(Alternate Tuning DADGAE)
-Was in the requests and this was a good tab-

Note: Gsus6 in this song means Gsus2add6

Intro/Verse
Gtr. 1 (scratchy record player effect) (easy strumming)
Dmaj9 Gsus6add#4
e|------0-------0---------0------0---|
a|------0-------0---------0------0---|
g|6--7--7---6---7---6--7--7---6--7---|
d|0-----0---0---0---5-----5---5--5---|
a|0-----0---0---0---5-----5---5--5---|
d|0---------0---0---5---------5--5---|

Gtr. 2 (clean) (straight 8th notes)
Dsus2 Gsus6
e|0--0--0--0--0--0--0--0--0--0--0--0--0--0--0--0---|
a|0--0--0--0--0--0--0--0--0--0--0--0--0--0--0--0---|
g|2--2--2--2--2--2--2--2--7--7--7--7--7--7--7--7---|
d|0--0--0--0--0--0--0--0--5--5--5--5--5--5--5--5---|
a|0--0--0--0--0--0--0--0--5--5--5--5--5--5--5--5---|
d|0--0--0--0--0--0--0--0--5--5--5--5--5--5--5--5---|


Chorus
Gtr. 1 (distortion and very slight chorus)
feedback (very quiet) pitch= D
e|-----------------------------------|
a|-----------------------------------|
g|-----------------------------------|
d|<5>~~~~~~~~~~~~~~~~~~~~~~~~~~~~~~~~|
a|-x---------------------------------|
d|<5>~~~~~~~~~~~~~~~~~~~~~~~~~~~~~~~~|

Gtr. 2 (distortion and palm muting)
D5 G5 Bb5 A5
e|-------------------------------------------------|
a|-------------------------------------------------|
g|------------------------3--3--3--3--2--2--2--2---|
d|0--0--0--0--5--5--5--5--3--3--3--3--2--2--2--2---|
a|0--0--0--0--5--5--5--5--1--1--1--1--0--0--0--0---|
d|0--0--0--0--5--5--5--5---------------------------|


Post-Chorus
Both guitars (distortion)
Gsus6 D5
e|0--0--0--0--0--0--0--0--0--0--0--0--0--0--0--0---------|
a|0--0--0--0--0--0--0--0--0--0--0--0--0--0--0--0---------|
g|7--7--7--7--7--7--7--7--7--7--7--7--7--7--7--7---------|
d|5--5--5--5--5--5--5--5--5--5--5--5--5--5--5--5--0--0---|
a|5--5--5--5--5--5--5--5--5--5--5--5--5--5--5--5--0--0---|
d|5--5--5--5--5--5--5--5--5--5--5--5--5--5--5--5--0--0---|
D D5 F5 A (5)
e|------2------------------------------------------|
a|------0-----------------------------4------------|
g|------2-----------------------------2--2--2--2---|
d|0--0--0--0--0--0--0--0--3--3--3--3--2--2--2--2---|
a|0--0--0--0--0--0--0--0--3--3--3--3--0--0--0--0---|
d|0--0--0--0--0--0--0--0--3--3--3--3---------------|

Copyrights
Auteur: ?
Componist: ?
Uitgever: ?
Meer details
Taal: Engels

Reacties

CommonCrawl [Bot]

Volg Muzikum