Foo Fighters

Foo Fighters
Disenchanted Lullaby Ver 2 (Guitar tab)

DISENCHANTED LULLABY
Foo Fighters
Album; One by One
transcribed by joel hewitt
mike_einziger@hotmail.com

standard tuning

intro:

e------------2-----------------------2---------
b---------0-----0----------------0------0------
g------2-----------2---------2-------------2---
d----------------------------------------------
a---2------------------0-2---------------------
E----------------------------------------------

chourus:

e-------------------2---
b-------------------0---
g-------------------2---
d-------------------1---
a----0-0h1-2--------2---
E-----------------------

bridge:

e-----------------
b-----------------
g----4---7---4---2
d----4---7---4---2
a----2---5---2---0
E-----------------

what a great song off they're new album One by One

foo fighters rule if have any improvements or additions then go ahead or e-mail me for anything esle questions etc,

mike_einziger@hotmail.com

joel hewitt

22nd october 2002

OptimusPrime

Toegevoegd door OptimusPrime op zo 01 dec, 2002 9:53 am

Auteur: ?
Componist: ?
Uitgever: ?
Taal: Engels

Reacties

CommonCrawl [Bot]

Volg Muzikum