Foo Fighters

Foo Fighters
Everlong Acoustic Ver 3 (Guitar tab)

Author/Artist: Foo Fighters
Title: Everlong (Acoustic)
Album: The Colour And The Shape
Transcribed by: Colin Watts
Email: matrix572@hotmail.com

Tuning: Standard (EADgbe)


Intro / Main Riff

Each chord strummed quickly (all downstrokes). Listen to track for how long
each chord needs to be played.

e -------------------------------------------------------------------------------
b -------------------------------------------------------------------------------
g -------------------------------------------------------------------------------
D ---11----11---\---7---/---11---------------------------------------------------
A ---9-----9----\---5---/---9------(repeat as necessassary)----------------------
E ---10----7----\---3---/---7----------------------------------------------------

\ = slide down
/ = slide up

Pre Chorus

e -------------------------------------------------------------------------------
b -------------------------------------------------------------------------------
g ---6-6-6-/-7-7-7-/-9-9-9-/-11-11-11-/-12-/-13-/-14-14-14-----------------------
D ---X-X-X-/-X-X-X-/-X-X-X-/-X--X--X--/-X--/-X--/-X--X--X------(played 3 times)--
A ---4-4-4-/-5-5-5-/-7-7-7-/-9--9--9--/-10-/-11-/-12-12-12-----------------------
E -------------------------------------------------------------------------------

Chorus

e ---------------------------------------------------|---------------------------
b ---------------------------------------------------|---------------------------
g ---4--4-4--4-4-4-4---------------------------------|---7-7--7-7-7-7----5-5-5-5-
D ---4--4-4--4-4-4-4---5-5--5-5-5-5---7-7--7-7-7-7---|---7-7--7-7-7-7----5-5-5-5-
A ---2--2-2--2-2-2-2---5-5--5-5-5-5---7-7--7-7-7-7---|---5-5--5-5-5-5----5-5-5-5-
E ---------------------3-3--3-3-3-3---5-5--5-5-5-5---|---5-5--5-5-5-5----5-5-5-5-

played twice on 3rd time end with


This tab still isn't perfect, but the intro/main riff is 100% correct and it's closer
to the actual 'acoustic' tab than any of the other Everlong tabs posted.

OptimusPrime

Toegevoegd door OptimusPrime op zo 01 dec, 2002 9:53 am

Auteur: ?
Componist: ?
Uitgever: ?
Taal: Engels

Reacties

1 bericht

CommonCrawl [Bot]
Anonymous
vr 23 mei, 2003 8:39 pm
the intro: waaaay off. . .i'd stick with the other tabs on that one, sorry pal.
1 bericht • Pagina 1 van 1

Volg Muzikum