Foo Fighters

Foo Fighters
One Ver 2 (Guitar tab)

Foo fighters - the one

by sean holden

www.sean-holden.cityslide.com


Intro

G# A x3
e-|-------------|-------|
B-|-------------|-3--4--|
G-|-------------|-5b-6b-| x3
D-|-6/7-7-7-7-7-|-------|
A-|-6/7-7-7-7-7-|-------|
E-|-4/5-5-5-5-5-|-------|

G# A
e-|-------------|-3-----| |--------|
B-|-------------|-5b-3--| (OR) |-8---3--|
G-|-------------|----5b-| |-11b-5b-|
D-|-6/7-7-7-7-7-|-------| |--------|
A-|-6/7-7-7-7-7-|-------| |--------|
E-|-4/5-5-5-5-5-|-------| |--------|


Verse

A G# G F# F E D D
e-|------------------------|
B-|------------------------|
G-|-------------------7--7-| repeat
D-|-7--6--5--4--3--2--7--7-|
A-|-7--6--5--4--3--2--5--5-|
E-|-5--4--3--2--1--0-------|

repeat each chord four times


Pre-Chorus

D D#
e-|------|
B-|------| play D 6 times, then
G-|-7--8-| quickly play D# 6 times
D-|-7--8-|
A-|-5--6-|
E-|------|


Chorus

A D C F G
e-|---------------|
B-|---------------|
G-|----7--5-------|
D-|-7--7--5--3--5-|
A-|-7--5--3--3--5-|
E-|-5--------1--3-|

A
'Cause you're not the one
D
But you're the only one
C F G
Who can make me feel like this


Before verse two, play one bar of intro,
then the ending of the intro.


Bridge

D D# F G
e-|------------|
B-|------------|
G-|-7--8-------| repeat, without D#
D-|-7--8--3--5-|
A-|-5--6--3--5-|
E-|-------1--3-|

D D# F
Until the end of time
G
In another life
D
'Til the day I die
F
Save it up for one more try
G
Save it for the last goodbye

x3
D-|-------------|-------------|
A-|-5h7-7-7-7-7-|-7p6p5-3p2p0-|
E-|-------------|-------------|
We go on, Get off
Get on, Get off

x3
e-|-------------|
B-|-------------|
G-|-8/9-9-9-9-9-| one octave up
D-|-6/7-7-7-7-7-| from Intro
A-|-------------|
E-|-------------|


Ending

repeat repeat
e-|--------|-10----|----------|
B-|--10----|----13-|-10h13p10-|
G-|--12b---|-------|----------|
D-|--------|-------|----------|
A-|--------|-------|----------|
E-|--------|-------|----------|

repeat
e-|--------|----------|-17-15-----15-------------------------------|
B-|--10----|-13---8---|-------17-----17-15--17-15-----15-----------|
G-|--12b---|-15b--10b-|---------------------------17-----17-14--14-|
D-|--------|----------|--------------------------------------------|
A-|--------|----------|--------------------------------------------|
E-|--------|----------|--------------------------------------------|



comments to seanfighter@hotmail.com

OptimusPrime

Toegevoegd door OptimusPrime op zo 01 dec, 2002 9:53 am

Auteur: ?
Componist: ?
Uitgever: ?
Taal: Engels

Reacties

CommonCrawl [Bot]

Volg Muzikum