Foo Fighters

Foo Fighters
Everlong Acoustic Ver 2 (Guitar tab)

Author/Artist: Foo Fighters
Title: Everlong (acoustic)
Album: The Colour And The Shape
Transcribed by: Ken C. (thepeoplesuck@hotmail.com)


This is one of the best Foo Fighters song ever. I think the acoustic
is better than the original version. It's in Drop D tuning.
I've divided it into seven parts. The progression will be explained later.
Lyrics are also included. Have fun.


*Part I- Intro*
e|---------------------------------------------------------------
B|---------------------------------------------------------------
G|---------------------------------------------------------------
D|-----11-11---11--11-11--11-11-11-------11-11---11--11-11-11----
A|-----9--9-----9--9--9---9--9--9--------9--9----9---9--9--9-----
D|-0-0-------0-----0--0---0--0--0--0-9-9-------9-----9--9--9--9--

--------------------------------------------------------|
--------------------------------------------------------|
--------------------------------------------------------|
------7---7-7-7-----11-11---11--11-11-11-11-11-11-11-11-|
------5---5-5-5-----9--9----9---9--9--9--9--9--9--9--9--|
--5-5---5-------9-9------9------9--9--9--9--9--9--9--9--|


*Part II- Verse*
e|--------------------------------------------------
B|--------------------------------------------------
G|-11-11-11-11-11-11-11-11-11-11-11-11-11-11-11-11--
D|-11-11-11-11-11-11-11-11-11-11-11-11-11-11-11-11--
A|-9--9--9--9--9--9--9--9--9--9--9--9--9--9--9--9---
D|-0--0--0--0--0--0--0--0--0--0--0--0--0--0--0--0---

---------------------------------------------------
---------------------------------------------------
--11-11-11-11-11-11-11-11-11-11-11-11-11-11-11-11--
--11-11-11-11-11-11-11-11-11-11-11-11-11-11-11-11--
--9--9--9--9--9--9--9--9--9--9--9--9--9--9--9--9---
--9--9--9--9--9--9--9--9--9--9--9--9--9--9--9--9---

------------------------------------------------------------------|
------------------------------------------------------------------|
--7-7-7-7-7-7-7-7-11-11-11-11-11-11-11-11-11-11-11-11-11-11-11-11-|
--7-7-7-7-7-7-7-7-11-11-11-11-11-11-11-11-11-11-11-11-11-11-11-11-|
--5-5-5-5-5-5-5-5-9--9--9--9--9--9--9--9--9--9--9--9--9--9--9--9--|
--5-5-5-5-5-5-5-5-9--9--9--9--9--9--9--9--9--9--9--9--9--9--9--9--|


*Part III- Bridge*
e|-----------------------0-|
B|-----------------------5-|
G|-6--7--9--11-11-12-11--6-|
D|-6--7--9--11-11-12-11--7-|
A|-4--5--7--9--9--10-9---0-|
D|-0--0--0--0--0--0--0-----|


*Part IV- Chorus*
e|---------------------------------------------------|
B|---------------------------------------------------|
G|-4-4-4-4-4-4-4---------------7-7-7-7-7-7-7-7-7-7-7-|
D|-4-4-4-4-4-4-4--5-5-5-5-5-5--7-7-7-7-7-7-7-7-7-7-7-|
A|-2-2-2-2-2-2-2--5-5-5-5-5-5--5-5-5-5-5-5-5-5-5-5-5-|
D|----------------5-5-5-5-5-5--0-0-0-0-0-0-0-0-0-0-0-|


*Part V- Second Chorus*
e|--------------------------------------------------------------------------|
B|--------------------------------------------------------------------------|
G|-4-4-4-4-4-4-4---------------7-7-7-7--------------------------------------|
D|-4-4-4-4-4-4-4--5-5-5-5-5-5--7-7-7-7-7-7-7-7-7-7--5-5-5-5-5-5-5-5-5-5-5-5-|
A|-2-2-2-2-2-2-2--5-5-5-5-5-5--5-5-5-5-7-7-7-7-7-7--5-5-5-5-5-5-5-5-5-5-5-5-|
D|----------------5-5-5-5-5-5--0-0-0-0-7-7-7-7-7-7--5-5-5-5-5-5-5-5-5-5-5-5-|


*Part VI- Second Bridge*
e|---------------------|
B|---------------------|
G|-6--7--9-11-11-12-11-|
D|-6--7--9-11-11-12-11-|
A|-4--5--7--9--9-10--9-|
D|-0--0--0--0--0--0--0-|


*Part VII- Final Chord*
e|-----|
B|-----|
G|--11-|
D|--11-|
A|--9--|
D|--0--|




*Progression of Parts*

I, II, II
I, II, II
III, III, III
IV, IV, V

I, II, II
I, II, II
III, III, III
IV, IV, V

I

VI, VI, VI, VI
VI, VI, III

IV, IV, V
VII




*Lyrics*

(verse)
Hello, I've waited here for you
Everlong
Tonight, I throw myself into
And out of the red, out of her head she sang
Come down and
Waste away with me
Down with me
Slow how you
Wanted it to be
I'm over my head, out of her head she sang

(bridge)
And I wonder
When I sing along with you

(chorus)
If everything could ever feel this real forever
If anything could ever be this good again
(second chorus)
Only thing I'll ever ask of you
Gotta promise not to stop when I say when
She sang

(verse)
Breathe out, so
I can breathe you in
Hold you in
And now, I
Know you've always been
And out of your head, out of my head I sang

(bridge)
And I wonder
When I sing along with you

(chorus)
If everything could ever feel this real forever
If anything could ever be this good again
(second chorus)
Only thing I'll ever ask of you
Gotta promise not to stop when I say when
She sang

(second bridge)
And I wonder
When I sing along with you

(chorus)
If everything could ever feel this real forever
If anything could ever be this good again
Only thing I'll ever ask of you
(second chorus)
Gotta promise not to stop when I say when

OptimusPrime

Toegevoegd door OptimusPrime op zo 01 dec, 2002 9:53 am

Auteur: ?
Componist: ?
Uitgever: ?
Taal: Engels

Reacties

CommonCrawl [Bot]

Volg Muzikum