Foo Fighters

Foo Fighters
Everlong Ver 3 (Guitar tab)

Author/Artist: Foo Fighters
Title: Everlong
Transcribed by: Tobin Olson
Email: Golsonfam4@aol.com

This is a great song. It is in Drop D so have fun

Thanx

------------------------------------------------------------------------------
------------------------------------------------------------------------------
------------------------------------------------------------------------------
----12-12--12----12----3---12-------------------------------------------------
----10-10--10-----------------------------------------------------------------
-----------------10----5---10-------------------------------------------------
This is the intro. Play through listen to song for the timeing

------------------------------------------------------------------------------
------------------------------------------------------------------------------
----------6-7-9-11-12---------------------------------------------------------
------------------------7-----------------------------------------------------
----------4-5-7-9--10---7-----------------------------------------------------
------------------------7-----------------------------------------------------
this is the lead in to the chorus play 4 times.

----------------------------------------/-------------------------------------
----------------------------------------/-------------------------------------
----------------------------------------/-------------------------------------
------------9---5----3------------------/--------9--5---3--7-5----------------
------------9---5----5------------------/--------9--5---5--7-5----------------
------------9---5-----------------------/--------9--5------7-5----------------
this is the chorus play 4 times this is the ending

OptimusPrime

Toegevoegd door OptimusPrime op zo 01 dec, 2002 9:53 am

Auteur: ?
Componist: ?
Uitgever: ?
Taal: Engels

Reacties

CommonCrawl [Bot]

Volg Muzikum