Foo Fighters

Foo Fighters
Everlong Ver 5 (Guitar tab)

Foo Fighters - Everlong(The colour and the Shape)
(Drop D tuning)
submitted by Joshua :c)

Intro
(Gtr. 1 - Clean)
e||---------------------------------------------------------------------------------------|
B||---------------------------------------------------------------------------------------|
G||--11-11-11-11-11-11-11-11-11-11-11-11-11-11--11-11-11-11-11-11-11-11-11-11-11-11-11-11-|
D||--11-11-11-11-11-11-11-11-11-11-11-11-11-11--11-11-11-11-11-11-11-11-11-11-11-11-11-11-|
A||---9--9--9--9--9--9--9--9--9--9--9--9--9--9---9--9--9--9--9--9--9--9--9--9--9--9--9--9-|
D||---0--0--0--0--0--0--0--0--0--0--0--0--0--0---9--9--9--9--9--9--9--9--9--9--9--9--9--9-|

e|------------------------------------------||
B|------------------------------------------||
G|-7-7-7-7-7-7--11-11-11-11-11-11-11-11-11--||
D|-7-7-7-7-7-7--11-11-11-11-11-11-11-11-11--||
A|-5-5-5-5-5-5---9--9--9--9--9--9--9--9--9--||
D|-5-5-5-5-5-5---9--9--9--9--9--9--9--9--9--||

(Gtr. 2 - Once clean in the background then distortion)
e||------------------------------------------------------------------------------||
B||------------------------------------------------------------------------------||
G||--11----11-11-11----11-11-7----7-7-11-11-11-11-11-11-11-11-11-11-11-11-11-11--||
D||--11----11-11-11----11-11-7----7-7-11-11-11-11-11-11-11-11-11-11-11-11-11-11--||
A||---9-----9--9--9-----9--9-5----5-5--9--9--9--9--9--9--9--9--9--9--9--9--9--9--||
D||---0-----0--0--9-----9--9-5----5-5--9--9--9--9--9--9--9--9--9--9--9--9--9--9--||


Verse
(Gtr. 1)
e||---------------------------------------------------------------------------------------|
B||---------------------------------------------------------------------------------------|
G||--11-11-11-11-11-11-11-11-11-11-11-11-11-11--11-11-11-11-11-11-11-11-11-11-11-11-11-11-|
D||--11-11-11-11-11-11-11-11-11-11-11-11-11-11--11-11-11-11-11-11-11-11-11-11-11-11-11-11-|
A||---9--9--9--9--9--9--9--9--9--9--9--9--9--9---9--9--9--9--9--9--9--9--9--9--9--9--9--9-|
D||---0--0--0--0--0--0--0--0--0--0--0--0--0--0---9--9--9--9--9--9--9--9--9--9--9--9--9--9-|

e|------------------------------------------||
B|------------------------------------------||
G|-7-7-7-7-7-7--11-11-11-11-11-11-11-11-11--||
D|-7-7-7-7-7-7--11-11-11-11-11-11-11-11-11--||
A|-5-5-5-5-5-5---9--9--9--9--9--9--9--9--9--||
D|-5-5-5-5-5-5---9--9--9--9--9--9--9--9--9--||

(Gtr. 2)
e||-----------------|---------|-----------------||
B||-----------------|---------|-----------------||
G||---9--9--9-11--9-|-7-7-7-7-|--9--9--9-11--9--||
D||--11-11-11-11-11-|-7-7-7-7-|-11-11-11-11-11--||
A||---9--9--9--9--9-|-5-5-5-5-|--9--9--9--9--9--||
D||-----------------|---------|-----------------||
(4x) (2x)

(Gtr. 2)
e||-------------------------------------------------------------------------------------------------------------||
B||-------------------------------------------------------------------------------------------------------------||
G||------11-11---11---11---11-11-11------11-11---11---11---11-11-11------7-7-7------11-11---11---11---11-11-11--||
D||------11-11---11---11---11-11-11------11-11---11---11---11-11-11------7-7-7------11-11---11---11---11-11-11--||
A||-------9--9----9----9----9--9--9-------9--9----9----9----9--9--9------5-5-5-------9--9----9----9----9--9--9--||
D||--0-0-------0----0----0--0--0--0--9-9-------9----9----9--9--9--9--5-5-5-5-5--9-9-------9----9----9--9--9--9--||


Pre-Chorus (The third time you don't play the last chords you jump to the first chorus chord)
(Gtr. 1)
e||--------------------------------------------------||
B||--------------------------------------------------||
G||--------------------------------------------------||
D||--0-0-0--0-0-0--0-0-0--0-0-0-0--0--0--7-7-7--7-7--||
A||--4-4-4--5-5-5--7-7-7--9-9-9-9h10-10--7-7-7--7-7--||
D||--------------------------------------7-7-7--7-7--||
(3x)

(Gtr. 2)
e||------------------------------------------------------||
B||------------------------------------------------------||
G||--6-6-6--7-7-7--9-9-9--11-11-11-11h12-12--------------||
D||--x-x-x--x-x-x--x-x-x---x--x--x--x--x--x--7-7-7--7-7--||
A||--4-4-4--5-5-5--7-7-7---9--9--9--9h10-10--7-7-7--7-7--||
E||------------------------------------------7-7-7--7-7--||
(3x)

Chorus
(Gtr. 1)
e||----------------------------------------------------------------------------------|
B||----------------------------------------------------------------------------------|
G||--11-11--11-11-11-11-11-11-11-11-11-11-11--7-7-7-7-7-7-7-7-7-7--7-7-7-7-7-7-7-7-7-|
D||--11-11--11-11-11-11-11-11-11-11-11-11-11--7-7-7-7-7-7-7-7-7-7--7-7-7-7-7-7-7-7-7-|
A||---9--9---9--9--9--9--9--9--9--9--9--9--9--5-5-5-5-5-5-5-5-5-5--5-5-5-5-5-5-5-5-5-|
D||---9--9---9--9--9--9--9--9--9--9--9--9--9--5-5-5-5-5-5-5-5-5-5--0-0-0-0-0-0-0-0-0-|
(3x)

e|---------------------------||
B|---------------------------||
G|---------------------------||
D|-7-7-7-7-7--5-5-5-5-5-5-5--||
A|-7-7-7-7-7--5-5-5-5-5-5-5--||
D|-7-7-7-7-7--5-5-5-5-5-5-5--||

(Gtr. 2)
e||--------------------------------------------------------------------|
B||--------------------------------------------------------------------|
G||--------------------------------------------------7-7-7-7-7-7-7-7-7-|
D||--9-9-9-9-9-9-9-9-9-9-9-9-9--5-5-5-5-5-5-5-5-5-5--7-7-7-7-7-7-7-7-7-|
A||--9-9-9-9-9-9-9-9-9-9-9-9-9--5-5-5-5-5-5-5-5-5-5--5-5-5-5-5-5-5-5-5-|
D||--9-9-9-9-9-9-9-9-9-9-9-9-9--5-5-5-5-5-5-5-5-5-5--------------------|
(3x)

e|------------------------------||
B|------------------------------||
G|---------------------------7--||
D|-9-9-9-9-9--5-5-5-5-5-5-5--7--||
A|-9-9-9-9-9--5-5-5-5-5-5-5--5--||
D|-9-9-9-9-9--5-5-5-5-5-5-5-----||


After-Chorus
(Gtr. 2)
e||-----------------------------|---------|-----------------------------||
B||-----------------------------|---------|-----------------------------||
G||---9--9--9--9--9--9--9-11--9-|-7-7-7-7-|--9--9--9--9--9--9--9-11--9--||
D||--11-11-11-11-11-11-11-11-11-|-7-7-7-7-|-11-11-11-11-11-11-11-11-11--||
A||---9--9--9--9--9--9--9--9--9-|-5-5-5-5-|--9--9--9--9--9--9--9--9--9--||
D||-----------------------------|---------|-----------------------------||
(2x)


Bridge
(Play Intro)


Pre-Chorus 3
(Gtr. 1)
e||------------------------------------------|----------------------------------------||
B||------------------------------------------|----------------------------------------||
G||------------------------------------------|----------------------------------------||
D||--11-11-11--9-9-9--7-7-7------------------|-11-11-11--9-9-9--7-7-7--9-9-9-9h11-11--||
A||--------------------------10-10-10-9h10-9-|----------------------------------------||
D||------------------------------------------|----------------------------------------||

(Gtr. 2)
e||------------------------------------------||
B||------------------------------------------||
G||--6-6-6--7-7-7--9-9-9--11-11-11-11h12-12--||
D||--x-x-x--x-x-x--x-x-x---x--x--x--x--x--x--||
A||--4-4-4--5-5-5--7-7-7---9--9--9--9h10-10--||
D||------------------------------------------||


Outro
e||----------------------------------------------------------------||
B||----------------------------------------------------------------||
G||----------------------------------------------------------------||
D||------5------5------5------5------5------5------5----5-5-----5--||
A||------5------5------5------5------5------5------5----5-5-----5--||
D||--5-5----5-5----5-5----5-5----5-5----5-5----5-5----5------5--5--||

__from our friends @_________________________
http://tabs.foofighters.com

OptimusPrime

Toegevoegd door OptimusPrime op zo 01 dec, 2002 9:53 am

Auteur: ?
Componist: ?
Uitgever: ?
Taal: Engels

Reacties

CommonCrawl [Bot]

Volg Muzikum