Foo Fighters

Foo Fighters
Breakout Ver 2 (Guitar tab)

Transcribed by: Rik
Email: slikriky@hotmail.com
Artist: Foo Fighters
Song Title: Breakout
Released: October 1999
Album- There is Nothing Left to Lose
Tabbed: 30/7/2000

OK I know people have tabbed this but I just think they didn\'t do a decent job.
I tabbed this by watching a live performance of the song
(which I got from www.tnltl.com) and now I believe
I have the full TAB here well everything you need to play satisfactoraly.
Check the CD for the timing or get the video
from the site above.

Standard Tuning

Intro/Verse

e|-----------------------------------------------------------|
B|-----------------------------------------------------------|
G|------9----------------------------------------------------|
D|--9---9---11---10------------------------------------------|
A|--9---7---11---10------------------------------------------|
D|--7---7---9----8-------------------------------------------|


Bm G Bm E B G B E
e|--2---3---2---0--|-1---3---1---0---------------------------|
B|--4---3---4---0--|-3---3---3---0---------------------------|
G|--4---0---4---1--|-3---0---3---1---------------------------|
D|--4---0---4---2--|-3---0---3---2---------------------------|
A|--2---2---2---2--|-1---2---1---2---------------------------|
D|--2---3---2---0--|-1---3---1---0---------------------------|

Bm A ? ?
e|--2---0---4--7---------------------------------------------|
B|--4---2---6--9---------------------------------------------|
G|--4---2---6--9---------------------------------------------|
D|--4---2---6--9---------------------------------------------|
A|--2---0---4--7---------------------------------------------|
D|--2---0---4--7---------------------------------------------|

OptimusPrime

Toegevoegd door OptimusPrime op zo 01 dec, 2002 9:53 am

Auteur: ?
Componist: ?
Uitgever: ?
Taal: Engels

Reacties

CommonCrawl [Bot]

Volg Muzikum