Foo Fighters

Foo Fighters
All My Life Ver 5 (Guitar tab)

Intro
palm muted
E|-------------------------------------------------------|
B|-------------------------------------------------------|
G|-------------------------------------------------------|
D|--5-5--5--5-5--5--5-5--5--5-5--------------------------|
A|--5-5--5--5-5--5--5-5--5--5-5--------------------------|
E|--3-3--3--3-3--3--3-3--3--3-3--------------------------|

after a G power chord's natural harmonic...

Guitar 1
E|----------------------------------------------------------|
B|----------------------------------------------------------|
G|------------------------3--3-------------------------6--6-|
D|-5-5---5-5�--5-5-5---5--3--3--5-5---5-5�--5-5-5---5--6--6-|
A|-5-5---5-5�--5-5-5---5--1--1--5-5---5-5�--5-5-5---5--4--4-|
E|-3-3-0-3-3�--3-3-3-0-3--------3-3-0-3-3�--3-3-3-0-3-------|


fast
E|-----------------------------------------------------------------------|
B|-----------------------------------------------------------------------|
G|----3-------3------3------3---5--5------3-------3------3------3---6--6-|
D|------------------------------x--x--------------------------------x--x-|
A|------------------------------3--3--------------------------------4--4-|
E|-3---3-3-3-------3--3-3-3-----------3----3-3-3-------3--3-3-3----------|


both guitars

E|-x-x-x-x-x-x-x-x-x-x-x-x-x-x-x-x-x-x-x-x-x-x-x-x-
B|-4-4-4-4-4-4-4-4-4-4-4-4-3-3-3-3-3-3-3-3-3-3-3-3-
G|-0-0-0-0-0-0-0-0-0-0-0-0-0-0-0-0-0-0-0-0-0-0-0-0-
D|-5-5-5-5-5-5-5-5-5-5-5-5-5-5-5-5-5-5-5-5-5-5-5-5-
A|-6-6-6-6-6-6-6-6-6-6-6-6-5-5-5-5-5-5-5-5-5-5-5-5-
E|-x-x-x-x-x-x-x-x-x-x-x-x-x-x-x-x-x-x-x-x-x-x-x-x-

E|-0-0-0-0-0-0-1-1-1-1-1-1-6-6-6-6-6-6-6-3-|
B|-1-1-1-1-1-1-1-1-1-1-1-1-6-6-6-6-6-6-6-3-|
G|-0-0-0-0-0-0-2-2-2-2-2-2-6-6-6-6-6-8-6-4-|
D|-2-2-2-2-2-2-3-3-3-3-3-3-8-8-8-8-8-8-8-5-|
A|-3-3-3-3-3-3-3-3-3-3-3-3-8-8-8-8-8-6-8-5-|
E|-0-0-0-0-0-0-1-1-1-1-1-1-6-6-6-6-6-6-6-3-|

Don�t know solo

OptimusPrime

Toegevoegd door OptimusPrime op zo 01 dec, 2002 9:53 am

Auteur: ?
Componist: ?
Uitgever: ?

Reacties

CommonCrawl [Bot]

Volg Muzikum