Foo Fighters

Foo Fighters
Tired (Guitar tab)

#

Hello :) I tabbed this from a live version i found.
Its not got chris' guitar yet. I might try that one later :p

Drop D Tuning

Intro

PM-------------------------->
e-|---------------------------------
b-|---------------------------------
G-|------7-------7-------7-------7--
D-|------5-------5-------5-------5--
A-|--5-5-5-5-5-5-5-5-5-5-5-5-5-5-5--
D-|--5-5-5-5-5-5-5-5-5-5-5-5-5-5-5--

Verse

PM ------------------------->
e-|---------------------------------
b-|---------------------------------
G-|------7-------7-------7-------7--
D-|------5-------5-------5-------5--
A-|--5-5-5-5-5-5-5-5-5-5-5-5-5-5-5--
D-|--5-5-5-5-5-5-5-5-5-5-5-5-5-5-5--
I can be your liar,

PM ------------------------->
e-|---------------------------------
b-|---------------------------------
G-|------7-------7-------7-------7--
D-|------5-------5-------5-------5--
A-|--5-5-5-5-5-5-5-5-5-5-5-5-5-5-5--
D-|--5-5-5-5-5-5-5-5-5-5-5-5-5-5-5--
I can be your bearer of bad...

PM -------------------------->
e-|---------------------------------
b-|---------------------------------
G-|------5-------5-------5-------5--
D-|------3-------3-------3-------3--
A-|--3-3-3-3-3-3-3-3-3-3-3-3-3-3-3--
D-|--3-3-3-3-3-3-3-3-3-3-3-3-3-3-3--
...news

PM -------------------------->
e-|---------------------------------
b-|---------------------------------
G-|------3-------3-------2-------2--
D-|------1-------1-------0-------0--
A-|--1-1-1-1-1-1-1-1-0-0-0-0-0-0-0--
D-|--1-1-1-1-1-1-1-1-0-0-0-0-0-0-0--
Sick and uninspired by

PM-------------------------->
e-|---------------------------------
b-|---------------------------------
G-|------7-------7-------7-------7--
D-|------5-------5-------5-------5--
A-|--5-5-5-5-5-5-5-5-5-5-5-5-5-5-5--
D-|--5-5-5-5-5-5-5-5-5-5-5-5-5-5-5--
The diamonds in your fire

PM-------------------------->
e-|---------------------------------
b-|---------------------------------
G-|------7-------7-------7-------7--
D-|------5-------5-------5-------5--
A-|--5-5-5-5-5-5-5-5-5-5-5-5-5-5-5--
D-|--5-5-5-5-5-5-5-5-5-5-5-5-5-5-5--
Burning like a flame inside of...

PM -------------------------->
e-|---------------------------------
b-|---------------------------------
G-|------5-------5-------5-------5--
D-|------3-------3-------3-------3--
A-|--3-3-3-3-3-3-3-3-3-3-3-3-3-3-3--
D-|--3-3-3-3-3-3-3-3-3-3-3-3-3-3-3--
...you

PM -------------------------->
e-|---------------------------------
b-|---------------------------------
G-|------3-------3-------2-------2--
D-|------1-------1-------0-------0--
A-|--1-1-1-1-1-1-1-1-0-0-0-0-0-0-0--
D-|--1-1-1-1-1-1-1-1-0-0-0-0-0-0-0--
Is this just desire or the...

PM -------------------------->
e-|---------------------------------
b-|---------------------------------
G-|------5-------5-------5-------5--
D-|------3-------3-------3-------3--
A-|--3-3-3-3-3-3-3-3-3-3-3-3-3-3-3--
D-|--3-3-3-3-3-3-3-3-3-3-3-3-3-3-3--
...truth

Bridge

PM -------------------------->
e-|---------------------------------
b-|---------------------------------
G-|------5-------5-------7-------7--
D-|--3-3-3-3-3-3-3-3-----5-------5--
A-|--3-3-3-3-3-3-3-3-5-5-5-5-5-5-5--
D-|------------------5-5-5-5-5-5-5--
So shame on me for the runes

PM -------------------------->
e-|---------------------------------
b-|---------------------------------
G-|------5-------5-------7-------7--
D-|--3-3-3-3-3-3-3-3-----5-------5--
A-|--3-3-3-3-3-3-3-3-5-5-5-5-5-5-5--
D-|------------------5-5-5-5-5-5-5--
So shame on me for the blues

PM -------------------------->
e-|---------------------------------
b-|---------------------------------
G-|------5-------5-------3-------3--
D-|------3-------3-------1-------1--
A-|--3-3-3-3-3-3-3-3-1-1-1-1-1-1-1--
D-|--3-3-3-3-3-3-3-3-1-1-1-1-1-1-1--
Another one returned that...

PM -------------------------->
e-|---------------------------------
b-|---------------------------------
G-|------2-------2-------2-------2--
D-|------0-------0-------0-------0--
A-|--0-0-0-0-0-0-0-0-0-0-0-0-0-0-0--
D-|--0-0-0-0-0-0-0-0-0-0-0-0-0-0-0--
I'll never use

Chorus

PM-------------------------->
e-|---------------------------------
b-|---------------------------------
G-|------7-------7-------7-------7--
D-|------5-------5-------5-------5--
A-|--5-5-5-5-5-5-5-5-5-5-5-5-5-5-5--
D-|--5-5-5-5-5-5-5-5-5-5-5-5-5-5-5--
I wont go getting tired of you

PM -------------------------->
e-|---------------------------------
b-|---------------------------------
G-|------5-------5-------5-------5--
D-|------3-------3-------3-------3--
A-|--3-3-3-3-3-3-3-3-3-3-3-3-3-3-3--
D-|--3-3-3-3-3-3-3-3-3-3-3-3-3-3-3--
I wont go getting tired of you

PM -------------------------->
e-|---------------------------------
b-|---------------------------------
G-|------3-------3-------2-------2--
D-|------1-------1-------0-------0--
A-|--1-1-1-1-1-1-1-1-0-0-0-0-0-0-0--
D-|--1-1-1-1-1-1-1-1-0-0-0-0-0-0-0--
Im not getting tired

Repeat Chorus

Verse 2 (same as verse 1)

(Hangin' on this wire)
(waiting for the day I have to chose)
(cursed by love so dire)
(one more boy for hire)
(one more boy to lend a hand to you)
(is this jsut desire or the truth?)

Bridge

Chorus

Mid 8

PM -------------------------->
e-|---------------------------------
b-|---------------------------------
G-|------5-------5-------5-------5--
D-|--3-3-3-3-3-3-3-3-3-3-3-3-3-3-3--
A-|--3-3-3-3-3-3-3-3-3-3-3-3-3-3-3--
D-|---------------------------------
Of you.............

PM-------------------------->
e-|---------------------------------
b-|---------------------------------
G-|------7-------7-------7-------7--
D-|------5-------5-------5-------5--
A-|--5-5-5-5-5-5-5-5-5-5-5-5-5-5-5--
D-|--5-5-5-5-5-5-5-5-5-5-5-5-5-5-5--
...........you

PM -------------------------->
e-|---------------------------------
b-|---------------------------------
G-|------5-------5-------5-------5--
D-|--3-3-3-3-3-3-3-3-3-3-3-3-3-3-3--
A-|--3-3-3-3-3-3-3-3-3-3-3-3-3-3-3--
D-|---------------------------------
Of you.............

PM-------------------------->
e-|---------------------------------
b-|---------------------------------
G-|-----10------10-------9-------9--
D-|------8-------8-------7-------7--
A-|--8-8-8-8-8-8-8-8-7-7-7-7-7-7-7--
D-|--8-8-8-8-8-8-8-8-7-7-7-7-7-7-7--
...........you ooooh

Repeat Verse 1

Bridge

Chorus x2

PM-------------------------->
e-|---------------------------------
b-|---------------------------------
G-|------7-------7-------7-------7--
D-|------5-------5-------5-------5--
A-|--3/5-5-5-5-5-5-5-5-5-5-5-5-5-5-- x3

OptimusPrime

Toegevoegd door OptimusPrime op zo 01 dec, 2002 9:53 am

Auteur: ?
Componist: ?
Uitgever: ?
Taal: Engels

Reacties

CommonCrawl [Bot]

Volg Muzikum