Foo Fighters

Foo Fighters
Hey Johnny Park Ver 2 (Guitar tab)

~~~~~~~~~~~~~~~~~~~~~~~~~~~~~~~~~~~~~~~~~~~~
Foo Fighters - Hey, Johnny Park!
Album: The Colour And The Shape

~~~~~~~~~~~~~~~~~~~~~~~~~~~~~~~~~~~~~~~~~~~~

Tabbed by: Alan Good (kentucky_fried_children_@hotmail.com)
Tuning: Drop D (EBGDAD)

This song is done on two guitars, as most of the Foo stuff is,
but i have tabbed it as well as i can for just one, for the benefit of
bands with just three members! It's not quite 100%, im missing a few slides
and riffs, but this way is easy to play. I've included all the bits of
the song, but please refer to the song order at the end of the tab


INTRO:

e----------------------------------------------------------------
b----------------------------------------------------------------
g------7-6-----7-6-----------------------7-7---------------------
d--9-9-----7-7-----2-2-2-2----2-4-5-5----7-7----2-2-2-2----------
a--9-9-----7-7-----2-2-2-2----2-4-5-5----5-5----2-2-2-2----------
d--9-9-----7-7-----2-2-2-2----2-4-5-5-----------2-2-2-2----------

e----------------------------------------------------------------
b----------------------------------------------------------------
g------7-6-----7-6-----------------------7-7-7-7-----------------
d--9-9-----7-7-----2-2-2-2----2-4-5-5----7-7-7-7-----------------
a--9-9-----7-7-----2-2-2-2----2-4-5-5----5-5-5-5-----------------
d--9-9-----7-7-----2-2-2-2----2-4-5-5----------------------------


VERSE: ( It's just basic Bm, D, A and E chords if you just want to strum
the rhythm, but this sounds better)

e--2-2-2-x-2----2-2-2-2--3p2------2-2-2-x-2-----2-2-2-2--3p2----
b--3-3-3-x-3----3-3-3-3------3----3-3-3-x-3-----3-3-3-3------3--
g--4-4-4-x-4----2-2-2-2-----------4-4-4-x-4-----2-2-2-2---------
d---------------------------------------------------------------
a---------------------------------------------------------------
d---------------------------------------------------------------

e--2-2-2-x-2----0-0-0-0-0-0----4----4----4----------------------
b--3-3-3-x-3----2-2-2-3-3-2----3----3----3----------------------
g--4-4-4-x-4----2-2-2-2-2-2----4----4----4----------------------
d---------------------------------------------------------------
a---------------------------------------------------------------
d---------------------------------------------------------------


CHORUS:

e---------------------------------------------------------------
b---------------------------------------------------------------
g--------------7-7-7-7-----------7-7-7-7-----------7-7-7-7------
d-2-4-5-5-5-5--7-7-7-7--5-5-5-5--7-7-7-7--5-5-5-5--7-7-7-7------
a-2-4-5-5-5-5--5-5-5-5--5-5-5-5--5-5-5-5--5-5-5-5--5-5-5-5------
d-2-4-5-5-5-5-----------5-5-5-5-----------5-5-5-5---------------

e---------------------------------------------------------------
b---------------------------------------------------------------
g-5-5-5-5------------5-5-5-5------------------------------------
d-5-5-5-5--3-3--0-0--5-5-5-5--3-3--0-0--------------------------
a-3-3-3-3--3-3--0-0--3-3-3-3--3-3--0-0--------------------------
d----------3-3--0-0-----------3-3--0-0--------------------------

CHORUS EXTENTION:

e---------------------------------------------------------------
b---------------------------------------------------------------
g-5-5-5-5------------5-5-5-5------------------------------------
d-5-5-5-5--3-3--0-0--5-5-5-5--3-3--0-0--------------------------
a-3-3-3-3--3-3--0-0--3-3-3-3--3-3--0-0--------------------------
d----------3-3--0-0-----------3-3--0-0--------------------------

MODIFIED INTRO:

e---------------------------------------------------------------
b---------------------------------------------------------------
g------7-6-----7-6----------------7-6-----7-6-------------------
d--9-9-----7-7-----2-2-2-2----9-9-----7-7----2-2-2-2------------
a--9-9-----7-7-----2-2-2-2----9-9-----7-7----2-2-2-2------------
d--9-9-----7-7-----2-2-2-2----9-9-----7-7----2-2-2-2------------

e----------------------------------------------------5-7-5------
b---------------------------------------------------------------
g------7-6-----7-6---------------------7-7-------7-7------------
d--9-9-----7-7-----2-2-2-2----2-4-5-5--7-7--5-5--7-7------------
a--9-9-----7-7-----2-2-2-2----2-4-5-5--5-5--5-5--5-5------------
e--9-9-----7-7-----2-2-2-2----2-4-5-5-------5-5-----------------

MODIFIED VERSE:

e---------------------------------------------------------------
b---------------------------------------------------------------
g-4-4-4-4--7-7-7-7--4-4-4-4--7-7-7-7--4-4-4-4-------------------
d-4-4-4-4--7-7-7-7--4-4-4-4--7-7-7-7--4-4-4-4-------------------
a-2-2-2-2--5-5-5-5--2-2-2-2--5-5-5-5--2-2-2-2-------------------
e---------------------------------------------------------------


e---------------------------------------------------------------
b---------------------------------------------------------------
g---------------------------------------------------------------
d-7-7-7-7--2-2-2-2-2-2-2-2--------------------------------------
a-7-7-7-7--2-2-2-2-2-2-2-2--------------------------------------
e-7-7-7-7--2-2-2-2-2-2-2-2--------------------------------------


ENDING:

e----------
b----------
g----------
d-0-0-5-0--
a-0-0-5-0--
d-0-0-5-0--


SONG ORDER:

INTRO (X1)
VERSE (X2)
CHORUS (X1)
VERSE (X1)
CHORUS (X1)
CHORUS EXTENTION (X1)
MODIFIED INTRO (X1)
MODIFIED VERSE (X1)
CHORUS (X1)
CHORUS EXTENTION (X1)
ENDING

OptimusPrime

Toegevoegd door OptimusPrime op zo 01 dec, 2002 9:53 am

Auteur: ?
Componist: ?
Uitgever: ?
Taal: Engels

Reacties

CommonCrawl [Bot]

Volg Muzikum