Foo Fighters

Foo Fighters
Gimme Stitches (Guitar tab)

Foo Fighters = Gimme Stitches
(Normal Tuning)


Intro
e||---------------||
B||---------------||
G||---------------||
D||---------------||
A||--2/4-0-0-0-0--||
E||---------------||

(Guitar 2)
e||---------------||
B||---------------||
G||--4/6-2-2-2-2--||
D||---------------||
A||---------------||
E||---------------||

(High Guitar)
e||--5---3-5--||
B||----5------|| (Repeat)
G||-----------||
D||-----------||
A||-----------||
E||-----------||


Verse
A5 G5 F#5 E5


Chorus
A5 D5 F5 C5
Dress me up in stiches...
Blood on you...


Bridge
A5 G#5 G5 F#5
How can you go on...


Outro
F5 C5
Gimme stiches...

OptimusPrime

Toegevoegd door OptimusPrime op zo 01 dec, 2002 9:53 am

Auteur: ?
Componist: ?
Uitgever: ?
Taal: Engels

Reacties

CommonCrawl [Bot]

Volg Muzikum