Foo Fighters

Foo Fighters
Ill Stick Around Ver 3 (Guitar tab)

Author/Artist: Foo Fighters
Title: I'll Stick Around
Album: Foo Fighters
Transcribed by: Hararge
Email: Haz@d-oh.co.uk

This is an easier way to play the song, and it also
includes a slide from F to G that I haven't seen before.
I know the tab is 5 years too late, but I wasn't old enough
to like the foos when they started out. All the pieces are
here, you just have to put them together. All the chords
(apart from intro + chorus ones) need to bit hit more than
once, I just couldn't be bothered to write them in. Send
any questions or comments to the address above. The
rest of th lyrics can be found at www.foofighters.com.
Standard tuning

------------------------------------------------------------------------------
------------------------------------------------------------------------------
----------8-8---3---5------------8-8---3---5----------------------------------
----5-5---8-8---3---5---3/-5-5---8-8---3---5---3/-5---------------------------
----5-5---6-6---1---3---3/-5-5---6-6---1---3---3/-5---------------------------
----3-3-----------------1/-3-3-----------------1/-3---------------------------
I don't owe you anything! (no lyrics during intro)

------------------------------------------------------------------------------
------------------------------------------------------------------------------
-----------------------------5----------------------------------------5-------
----5--------------3---------5--------------5----------3--------------5-------
----5--------------3---------3--------------5----------3--------------3-------
----3--------------1------------------------3----------1----------------------
I thought I knew all it took to bother you every word I said was true

------------------------------------------------------------------------------
------------------------------------------------------------------------------
------------------------------------------------------------------------------
-----------------5------------------------------------------------------------
-----------------5------------------------------------------------------------
-----------------3------------------------------------------------------------
that you'll see

------------------------------------------------------------------------------
------------------------------------------------------------------------------
--------------------------------5---------------------------------------5-----
------8----------5--------------5--------8----------5-------------------5-----
------8----------5--------------3--------8----------5-------------------3-----
------6----------3-----------------------6----------3-------------------------
I've taken all and I've endured....One day this all will fade I'm sure

------------------------------------------------------------------------------
------------------------------------------------------------------------------
-----8--------------10--------------------------------7-----------------------
-----8--------------10----------------5---------------7-----------------------
-----6--------------8-----------------5---------------5-----------------------
--------------------------------------3---------------------------------------
I'll sick around, I'll stick around, Learn from all that came from it

OptimusPrime

Toegevoegd door OptimusPrime op zo 01 dec, 2002 9:53 am

Auteur: ?
Componist: ?
Uitgever: ?
Taal: Engels

Reacties

CommonCrawl [Bot]

Volg Muzikum