Foo Fighters

Foo Fighters
Generator (Guitar tab)

Foo Fighters: "Generator"
Tabbed by: TaXi-GuRL
Email: taxi-gurl@mbox.com.au

Foo Fighters ROCK!!! and Dave Grohl has the nicest voice!!:)

INTRO:

Er.. rite at the start, there's no guitar in the first riff... just some freaky noise that sounds cool

Then the 3rd time it plays, u join in:

(Riff 1)

e|---------------------|
B|---------------------|
G|---------------------|
D|-6-6-4-2-4-2-4-6-4-2-|
A|---------------------|
E|---------------------|

e|--------------------|
B|--------------------|
G|---------4-6--------|
D|-6-6-6-7-----6-7-7--|
A|--------------------|
E|--------------------|

Play that twice.

Along the lead guitar, there's also some chords playing.

e|---------|
B|---------|
G|---------|
D|-2-2--7--|
A|-2-2--7--|
E|-0-0--5--|

e|---------|
B|---------|
G|---------|
D|-2-2--4--|
A|-2-2--4--|
E|-0-0--2--|

Play that twice as well, and time it rite to the first riff.

VERSE 1:

Then play these chords once: (if u hear the song u won't need me telling u all this shit)

e|--------------| e|--------|
B|--------------| B|--------|
G|-----------7--| G|----5---|
D|-7--2-4--2-7--| then.. D|---3----|
A|-7--0-4--2-5--| A|--5-----|
E|-5--0-2--0----| E|--------|

Play the chords again for the second part of the verse and then:

(Riff 2)

e|--------------|
B|--------------|
G|-6-3-6-7-6-3--| (2x) Then u play the intro again.
D|--------------|
A|--------------|
E|--------------|

Then play chords, and then Riff 2.

CHORUS:

First bit: Second bit: (Yeh can't u hear...)
e|------------------| e|----------|
B|------------------| B|----------|
G|-----10---11------| G|----------|
D|-7---10---11---5--| D|-7--5--7--|
A|-7----8---9----5--| A|-7--5--7--|
E|-5-------------3--| E|-5--3--5--|

Then u play INTRO after the chrous.

U get the rest of the verses.. they're the same, and then the chorus, then after the chorus u play E5 (7th fret) 8 times... then play this riff:

(Riff 3)

e|---------------------|
B|---------------------|
G|---------------------|
D|-7-7-5-4---------4---|
A|---------7-5-4-5---0-|
E|---------------------|

Then u play chorus 2 times, and then this for the ending:

OUTRO:

e|---------------------|
B|---------------------|
G|---------------------|
D|-6-6-4-2-4-2-4-6-4-2-|
A|---------------------|
E|---------------------|

e|----------------------|
B|----------------------|
G|---------------4------|
D|-6-6-4-2-4-2-4----7---|
A|------------------7---|
E|------------------5---|

That's all u gotta do to sound just as cool as the real band..hehe

OptimusPrime

Toegevoegd door OptimusPrime op zo 01 dec, 2002 9:52 am

Auteur: ?
Componist: ?
Uitgever: ?
Taal: Engels

Reacties

CommonCrawl [Bot]

Volg Muzikum