Foo Fighters

Foo Fighters
Stacked Actors Ver 4 (Guitar tab)

"Stacked Actors" By the Foo Fighters. Guitar Tab


all those guys out ther who think they know how to play the intro are wrong!

its like this.

first detune the bottom e to an A. huge detune and hard to keep in tune.

tuning e,b,g,d,a,A



e------------------------------------------------------------------------------------------
b------------------------------------------------------------------------------------------
g------------------------------------------------------------------------------------------
d------------------------------------------------------------------------------------------
a-0-0-3-5-5-3-5/10-10-3-5-5-3-5/8-8-6-6-5-3-5-4-4-3-6-6-5-3--------------------------------
A-0-0-3-5-5-3-5/10-10-3-5-5-3-5/8-8-6-6-5-3-5-----3-6-6-5-3--------------------------------

the two 4's are harmonics


e---0----0---0---0--| e---0----0-0--0---0--|
b---1----1-/-3-\-1--| b---1----4-4--3-\-1--|
g---2----0---0---0--| g---2----0-0--0---0--| repeat whole thing twice
d---2----2-/-4-\-2--| d---2----5-5--4-\-2--| let open strings ring thru out
a-0---0--3-/-5-\-3--| a-0---0--6-6--5-\-3--|
A-------------------| A--------------------|

repeat 3 times then 4th time

OptimusPrime

Toegevoegd door OptimusPrime op zo 01 dec, 2002 9:52 am

Auteur: ?
Componist: ?
Uitgever: ?
Taal: Engels

Reacties

CommonCrawl [Bot]

Volg Muzikum