Foo Fighters

Foo Fighters
My Poor Brain Ver 2 (Guitar tab)

FOO FIGHTERS - MY POOR BRAIN [Gabriel Drolet | guitare@mail.com ]
(Normal Tuning)


INTRO/VERSE
(Gtr. 1)
C# C#sus F# C#sus
e||--9--------9--------9-------9---||
B||--9--------9--------11------9---||
G||--10-------11-------11------11--||
D||--11-------11-------9-------11--||
A||--11-------9--------9-------9---||
E||--9--------9--------9-------9---||

(Gtr. 2)
C#
e||--9---||
B||------||
G||------||
D||--11--||
A||------||
E||------||


CHORUS
e||----------------------------------|
B||----------------------------------|
G||--6-6-6-6---4-4---4-4-4-4---9-7-6-|
D||--6-6-6-6---4-4---4-4-4-4---9-7-6-|
A||--4-4-4-4---2-2---2-2-2-2---7-6-4-|
E||----------------------------------|

e|----------------------------------||
B|----------------------------------||
G|-6-6-6-6---4-4---4-4-4-4----------||
D|-6-6-6-6---4-4---4-4-4-4---5-4-2--||
A|-4-4-4-4---2-2---2-2-2-2---5-4-2--||
E|---------------------------3-2-0--||


INTERLUDE
e||---------------------------------|
B||---------------------------------|
G||---------------------------------|
D||-6-6-6-6-6-6-6-6-9-9-9-9-9-9-9-9-|
A||-6-6-6-6-6-6-6-6-9-9-9-9-9-9-9-9-|
E||-4-4-4-4-4-4-4-4-7-7-7-7-7-7-7-7-|

e|-----------------------------------||
B|-----------------------------------||
G|-----4-----4--6------4------4-5-6--||
D|--------------6-------------4-5-6--||
A|-4-4---4-4----4--4-4---4-4--2-3-4--||
E|-----------------------------------||


SOLO
e||------------|------------------||
B||-0---0---0--|--0---0---0---0---||
G||-11--13--9--|--11--13--15--13--||
(x2) (x4)


OUTRO
(Gtr. 1)
e||------------------------------------||
B||------------------------------------||
G||-----4-----4--6------4-------4-5-6--||
D||--------------6--------------4-5-6--||
A||-4-4---4-4----4--4-4---4-4---2-3-4--||
E||------------------------------------||

(Gtr. 2)

OptimusPrime

Toegevoegd door OptimusPrime op zo 01 dec, 2002 9:52 am

Auteur: ?
Componist: ?
Uitgever: ?
Taal: Engels

Reacties

CommonCrawl [Bot]

Volg Muzikum