Foo Fighters

Foo Fighters
Baker Street First Solo (Guitar tab)

Author/Artist: Foo fighters
Title: Baker Street
Transcribed by: John Mills
Email: rageagainstthedurst@hotmail.com

This is only the first solo the correct way.

----13-12---------------13-12--------------13-12------------------------------
----------15-13-15b-----------15-13--------------15-13-13-13v-----------------
-14------------------14-------------14v-14--------------------14v-------------
------------------------------------------------------------------------------
------------------------------------------------------------------------------
------------------------------------------------------------------------------


----13-12---------------------------------------------------------------------
----------15-13-15b-----------------------------------------------------------
-14-----------------10/12/10--------------------------------------------------
------------------------------------------------------------------------------
------------------------------------------------------------------------------
------------------------------------------------------------------------------

OptimusPrime

Toegevoegd door OptimusPrime op zo 01 dec, 2002 9:52 am

Auteur: ?
Componist: ?
Uitgever: ?
Taal: Engels

Reacties

CommonCrawl [Bot]

Volg Muzikum