Foo Fighters

Foo Fighters
Learn To Fly Ver 5 (Guitar tab)

Foo Fighters - Learn To Fly
(Normal Tuning)



Intro\Chorus
(Gtr. 1)
Bsus2 F#m E
e||---------------------------------------------------------------||
B||---------------------------------------------------------------||
G||--4-4-4-4-4-4-4/-6-6-6-6-6h7r6-6\-4-4-4-4-4-4-4-4-4-4-4-4-4-4--||
D||--x-x-x-x-x-x-x/-x-x-x-x-x-x-x-x\-x-x-x-x-x-x-x-x-x-x-x-x-x-x--||
A||--2-2-2-2-2-2-2/-4-4-4-4-4h5r4-4\-2-2-2-2-2-2-2-2-2-2-2-2-2-2--||
E||---------------------------------------------------------------||

(Gtr. 2)
B4 F#m E
e||--0-0-0-0-0-0-0-0-0-0-0-0-|-0-0-0-0-0-0-0-0-0-0-0-0--||
B||--0-0-0-0-0-0-0-0-0-0-0-0-|-0-0-0-0-0-0-0-0-0-0-0-0--||
G||--4-4-4-4-4-4-2-2-2-2-2-2-|-1-1-1-1-1-1-1-1-1-1-1-1--||
D||--4-4-4-4-4-4-4-4-4-4-4-4-|-2-2-2-2-2-2-2-2-2-2-2-2--||
A||--2-2-2-2-2-2-4-4-4-4-4-4-|-2-2-2-2-2-2-2-2-2-2-2-2--||
E||--------------------------|-0-0-0-0-0-0-0-0-0-0-0-0--||


Verse
Bsus2 F#m E
e||-------2------------0------------0------------0--||
B||-------2------------0------------0------------0--||
G||---4-----------2---------------------------------||
D||-----4------------4---------2------------2-------||
A||--2----------4-----------------2------------2----||
E||--------------------------0------------0---------||


Interlude
G A E
e||--0-0-0-0-0-0-0-0/-0-0-0-0-0-0-0-0-0--0--0--0--0--||
B||--0-0-0-0-0-0-0-0/-0-0-0-0-0-0-0-0-0--0--0--0--0--||
G||--4-4-4-4-4-4-4-4/-6-6-6-6-6-6-6-6-1--1--1--1--1--||
D||--5-5-5-5-5-5-5-5/-7-7-7-7-7-7-7-7-2--2--2--2--2--||
A||--5-5-5-5-5-5-5-5/-7-7-7-7-7-7-7-7-2--2--2--2--2--||
E||--3-3-3-3-3-3-3-3/-5-5-5-5-5-5-5-5-0--0--0--0--0--||
"Make my way back home when i learn to fly."


Bridge
B G D E G A
e||--0-0-0-0-0-0--0-0-0-0-0--0-0-0-0-0--0-0-0-0-0-0-0-|-0-0-0-0-0-0-0-0/-0-0-0-0-0-0-0-0--||
B||--0-0-0-0-0-0--0-0-0-0-0--0-0-0-0-0--0-0-0-0-0-0-0-|-0-0-0-0-0-0-0-0/-0-0-0-0-0-0-0-0--||
G||--4-4-4-4-4-4--4-4-4-4-4--7-7-7-7-7--1-1-1-1-1-1-1-|-4-4-4-4-4-4-4-4/-6-6-6-6-6-6-6-6--||
D||--4-4-4-4-4-4--5-5-5-5-5--7-7-7-7-7--2-2-2-2-2-2-2-|-5-5-5-5-5-5-5-5/-7-7-7-7-7-7-7-7--||
A||--2-2-2-2-2-2--5-5-5-5-5--5-5-5-5-5--2-2-2-2-2-2-2-|-5-5-5-5-5-5-5-5/-7-7-7-7-7-7-7-7--||
E||---------------3-3-3-3-3-------------0-0-0-0-0-0-0-|-3-3-3-3-3-3-3-3/-5-5-5-5-5-5-5-5--||
"Fly along with me, i can't quite make it alone." "Try and make this life my own."


Outro
e||-----------2---|---------2--||
B||-------------2-|-----4---2--||
G||-----4---------|-4---4---4--||
D||--------4------|-4---2---4--||
A||--2------------|-2-------2--||
E||---------------|------------||
(4x)

OptimusPrime

Toegevoegd door OptimusPrime op zo 01 dec, 2002 9:52 am

Auteur: ?
Componist: ?
Uitgever: ?
Taal: Engels

Reacties

CommonCrawl [Bot]

Volg Muzikum