Foo Fighters

Foo Fighters
Mia (Guitar tab)

M.I.A by Foo Fighters

Transcribed by dave@mckechan.co.uk

Best song on the album, drop D

Main part

E-----------------------------------------
B--2-2-3-3-2-2--3-2--2-3-2-0--0-0-1-0-----
G--2-2-2-2-2-2--2-2--2-2-2-0--2-2-2-2-2-2-
D--0-0-0-0-0-0--0-0--0-0-0-0--3-3-3-3-2-2-
A--------------------------0--3-3-3-3-0-0-
D-----------------------------------------

Chorus chords

E-------------------------
B-------------------------
G-7--7--7-----------------
D-7--7--7--5-5-5-8-8-10-7-
A-5--5--5--5-5-5-8-8-10-7-

OptimusPrime

Toegevoegd door OptimusPrime op zo 01 dec, 2002 9:52 am

Auteur: ?
Componist: ?
Uitgever: ?
Taal: Engels

Reacties

CommonCrawl [Bot]

Volg Muzikum