Foo Fighters

Foo Fighters
Learn To Fly Ver 4 (Guitar tab)

Austin Griffin again...

This is a cool tune....
Foo Fighters
Learn to Fly

Contact me for antying at (n0llmit@aol.com)

\slide down
Intro:
e------------------------------------------
b------------------------------------------
g-11\----11-------6--------4---------------
d-11\----11-------6--------4---------------
a--9\-----9-------4--------2---------------
e------------------------------------------

e------------------------------------------
b------------------------------------------
g--11-------6--------4---------------------
d--11-------6--------4---------------------
a--9--------4--------2---------------------
e------------------------------------------
This is the main progression throughout the song.

Verse:

F#, C#, B
The lead in the verse are notes that are played in triplets kinda...
e----------------]-------------]-----7--------
b-------------7--]-------------]-7------------
g--------4-------]-----------8-]---------6----
d---4------------]-------6-----]--------------
a----------------]----4--------]--------------
e----------------]-------------]--------------
Just mess around with those notes, listen to the song and you will
kinda get the rhythym of how to play them...they are also played
over the chorus.

Chorus:
e------------------------------------------
b------------------------------------------
g--11-------6--------4---------------------
d--11-------6--------4---------------------
a--9--------4--------2---------------------
e------------------------------------------


e------------------------------------------
b------------------------------------------
g--12-----------------14-------------------
d--12-----------------14-------------------
a--10-----------------12-------------------
e------------------------------------------
"Just make my way back home and learn to fly..."

Bridge:

e------------------------------------------x2
b------------------------------------------
g----11----6----8----4--------12---14------
d----11----6----8----4--------12---14------
a----9-----4----6----2--------10---12------
e------------------------------------------

Ending:
e------------------------------------------
b------------------------------------------
g--4------6------11------------------------
d--4------6------11--let ring--------------
a--2------4-------9------------------------
e------------------------------------------

And that's about it... just my second tab... please contact me just
to chat or something thanx... peace

OptimusPrime

Toegevoegd door OptimusPrime op zo 01 dec, 2002 9:52 am

Auteur: ?
Componist: ?
Uitgever: ?
Taal: Engels

Reacties

CommonCrawl [Bot]

Volg Muzikum