Papa Roach
M-80 (Guitar tab)

Good song

Drop-D (DADGBE)

------------------------------------------------------------------------------
------------------------------------------------------------------------------
-10-10-10-10-10-10-10-10-9-9-9-9-9-9-9-9-5-5-5-5-5-5-5-5-7-7-7-7-7-7-7-7------
-8--8--8--8--8--8--8--8--7-7-7-7-7-7-7-7-3-3-3-3-3-3-3-3-5-5-5-5-5-5-5-5------
-8--8--8--8--8--8--8--8--7-7-7-7-7-7-7-7-3-3-3-3-3-3-3-3-5-5-5-5-5-5-5-5------
-8--8--8--8--8--8--8--8--7-7-7-7-7-7-7-7-3-3-3-3-3-3-3-3-5-5-5-5-5-5-5-5------
Intro (Similar to Chorus)

------------------------------------------------------------------------------
------------------------------------------------------------------------------
-10-10-10-10-10-10-10-12-12-12-12-12-12-12-12---------------------------------
-8--8--8--8--8--8--8--10-10-10-10-10-10-10-10---------------------------------
-8--8--8--8--8--8--8--10-10-10-10-10-10-10-10---------------------------------
-8--8--8--8--8--8--8--10-10-10-10-10-10-10-10---------------------------------


-----------------------------------------|------------------------------------
-----------------------------------------|------------------------------------
---------------10---------------------10-|---------------10-------------------
---------------x----------------------x--|-0-0-12p0-10p0-x-10--0-12p0-0-10p0--
---------------8----------------------8--|-0-0-12p0-10p0-8-10--0-12p0-0-10p0--
-0-0-12p0-10p0---10---0-12p0-0-10p0-0----|-0-0-12p0-10p0---10--0-12p0-0-10p0--
Verse

-----|------------------------------------------------------------------------
-----|------------------------------------------------------------------------
--10-|------------------------------------------------------------------------
-0-x-|-0-0-12p0-10p0-12-10----------------------------------------------------
-0-8-|-0-0-12p0-10p0-12-10----------------------------------------------------
-0---|-0-0-12p0-10p0-12-10----------------------------------------------------
Every 4th Time

------------------------------------------------------------------------------
------------------------------------------------------------------------------
-10-10-10-10-10-10-10-10-9-9-9-9-9-9-9-9-5-5-5-5-5-5-5-5-7-7-7-7-7-7-7-7------
-8--8--8--8--8--8--8--8--7-7-7-7-7-7-7-7-3-3-3-3-3-3-3-3-5-5-5-5-5-5-5-5------
-8--8--8--8--8--8--8--8--7-7-7-7-7-7-7-7-3-3-3-3-3-3-3-3-5-5-5-5-5-5-5-5------
-8--8--8--8--8--8--8--8--7-7-7-7-7-7-7-7-3-3-3-3-3-3-3-3-5-5-5-5-5-5-5-5------


------------------------------------------------------------------------------
------------------------------------------------------------------------------
------------------------------------------------------------------------------
-0-3p0-5-7-5-3--5--3--5-3-----------------------------------------------------
-0-3p0-5-7-5-3--5--3--5-3-----------------------------------------------------
-0-3p0-5-7-5-3--5--3--5-3-----------------------------------------------------
Bridge (BREAK IT!)

------------------------------------------------------------------------------
------------------------------------------------------------------------------
-10-10-10-10-10-10-1010-9-9-9-9-9-9-9-9-5-5-5-5-5-5-5-5-7-7-7-7-7-7-7-7-------
-8--8--8--8--8--8--8--8-7-7-7-7-7-7-7-7-3-3-3-3-3-3-3-3-5-5-5-5-5-5-5-5-------
-8--8--8--8--8--8--8--8-7-7-7-7-7-7-7-7-3-3-3-3-3-3-3-3-5-5-5-5-5-5-5-5-------
-8--8--8--8--8--8--8--8-7-7-7-7-7-7-7-7-3-3-3-3-3-3-3-3-5-5-5-5-5-5-5-5-------
Last Chorus w/ Variation

------------------------------------------------------------------------------
------------------------------------------------------------------------------
-10-10-10-10-10-10-10-10-12-12-12-12-12-12-12-12-9-9-9-9-9-9-9-9-9-9-9-9-9-9--
-8--8--8--8--8--8--8--8--10-10-10-10-10-10-10-10-7-7-7-7-7-7-7-7-7-7-7-7-7-7--
-8--8--8--8--8--8--8--8--10-10-10-10-10-10-10-10-7-7-7-7-7-7-7-7-7-7-7-7-7-7--
-8--8--8--8--8--8--8--8--10-10-10-10-10-10-10-10-7-7-7-7-7-7-7-7-7-7-7-7-7-7--


------------------------------------------------------------------------------
------------------------------------------------------------------------------
-9-9-10-10-10-10-10-10-10-10-12-12-12-12-12-12-12-12--7--7--10-10-------------
-7-7-8--8--8--8--8--8--8--8--10-10-10-10-10-10-10-10--7--7--10-10-------------
-7-7-8--8--8--8--8--8--8--8--10-10-10-10-10-10-10-10--5--5--8--8--------------
-7-7-8--8--8--8--8--8--8--8--10-10-10-10-10-10-10-10--0--0--8--8--------------


------------------------------------------------------------------------------
------------------------------------------------------------------------------
-10-10-10-10-10-10-10-10-9-9-9-9-9-9-9-9-5-5-5-5-5-5-5-5-7-7-7-7-7-7-7-7-7-7--
-8--8--8--8--8--8--8--8--7-7-7-7-7-7-7-7-3-3-3-3-3-3-3-3-5-5-5-5-5-5-5-5-5-5--
-8--8--8--8--8--8--8--8--7-7-7-7-7-7-7-7-3-3-3-3-3-3-3-3-5-5-5-5-5-5-5-5-5-5--
-8--8--8--8--8--8--8--8--7-7-7-7-7-7-7-7-3-3-3-3-3-3-3-3-5-5-5-5-5-5-5-5-5-5--


-------------|-------------------------------------|--------------------------
-------------|-------------------------------------|--------------------------
-7-7-7-7-7-7-|-----------------10--------------10--|-----10-----10-10-10-10---
-5-5-5-5-5-5-|-0--0--3-0-------x------12-10----x---|-----x------x--x--x--x----
-5-5-5-5-5-5-|-0--0--3-0---0-0-8--0-0-12-10-0--8---|-0-0-8--0-0-8--8--8--8----
-5-5-5-5-5-5-|-0--0--3-0---0-0----0-0-12-10-0------|-0-0----0-0---------------
Ending . . . . Last Time

Copyrights
Auteur: ?
Componist: ?
Uitgever: ?
Meer details
Taal: Engels

Reacties

CommonCrawl [Bot]

Volg Muzikum