Big Wreck

Big Wreck
Ladylike (Guitar tab)

Hi there I hope this tab isn't to hard I know there have been some requests for it.

Good luck!
-|----0-----------------------|---0-----------------------|-------------------
-|------3p0-------------------|-----3p0-------------------|-------------------
-|----------2p0---------------|---------2p0---------------|-------------------
-|--------------2h3-0-------0-|-------------2h3-0-------0-|-------------------
-|--------------------0h3-3---|-------------------0h3-3---|-------------------
-|-0--------------------------|-3-------------------------|-------------------
THE RIFF (brian)

-|----3---3------3---2-|------------------------------------------------------
-|----3---3------3---2-|------------------------------------------------------
-|---------------------|------------------------------------------------------
-|-3----3------3---2---|------------------------------------------------------
-|-3----3------3---2---|------------------------------------------------------
-|-3----3------3---2---|------------------------------------------------------
(ian)

-|--0--|--0--|--0--|------------------|-^5----^7-|----------------------------
-|--1--|--2--|--3--|--v4--p0----------|-^5----^7-|----------------------------
-|--0--|--0--|--0--|----------v2--p0--|-^5----^7-|----------------------------
-|--0--|--0--|--0--|------------------|-^5----^7-|----------------------------
-|--1--|--2--|--3--|------------------|-^5----^7-|----------------------------
-|-----|-----|-----|------------------|-^5----^7-|----------------------------
chorus la-dy-li-ke bridge (listen to CD for strumming)

-|----------------------------------|---------------------------------|-------
-|----b15r14p12---------------x-----|----------12-----12--------------|-------
-|--------------14p12---------x--14-|-------14b16--14b16--16b19r16p14-|-------
-|--------------------12\10---x-----|---------------------------------|-------
-|--------------------------12------|---------------------------------|-------
-|----------------------------------|---------------------------------|-------
solo (pick-up bar) (wah) solo (big bend)

-|-----------------------------------------------------|----------------------
-|-----------------------12------12--------------------|------12--------------
-|-16--16b19r16p14--14b16---14b16---16b19r16p14-16b19--|-14b16---16b19--------
-|-----------------------------------------------------|----------------------
-|-----------------------------------------------------|----------------------
-|-----------------------------------------------------|----------------------


---------------12----------|-------------------------------------|------------
------12-14-15----15-14-12-|-------------------------12-14-15-12-|------------
-14b16---------------------|-14p12----------------12-------------|------------
---------------------------|-------12\10----10/12----------------|------------
---------------------------|-------------12----------------------|------------
---------------------------|-------------------------------------|------------


-|--17b19-15-17---15p12----15-14-12----------------|------------------------|-
-|----------------------14----------15-------------|----------------14-13-12|-
-|------------------------------------/15-12-------|------------------------|-
-|-------------------------------------------12-10-|------------------------|-
-|-------------------------------------------------|-12-11-10-8--10---------|-
-|-------------------------------------------------|------------------------|-


-|--------12-------------12-------15-14-12----12-------|-------12-------------
-|--15b17----15p12-15b17----15p12----------15----15p17-|-15b17----15p12-------
-|-----------------------------------------------------|----------------------
-|-----------------------------------------------------|----------------------
-|-----------------------------------------------------|----------------------
-|-----------------------------------------------------|----------------------
(with great haste! Manger mon Shredies)

-----------12-----------------------------------------|---------------------|-
--------12----15p12-----------------------------------|-----10----------14--|-
--14b16-------------15-14-12----12--------------------|--12b14----------14--|-
-----------------------------12----12-10--------------|---------------------|-
-----------------------------------------12-10-8------|---------------------|-
------------------------------------------------------|---------------------|-


-|-----------------|-----------------------------------|----------------------
-|-14--------------|-----------12---------12--------12-|---------12-----------
-|-14--v14b15r14---|--v14---------b16r14-----b16r14----|-b16r14-----b16r14----
-|-----------------|------12---------------------------|----------------------
-|-----------------|-----------------------------------|----------------------
-|-----------------|-----------------------------------|----------------------
(HEAVY vibrato) (more crazy bends)

-------------------|-------12-13-14--------------------|----------------------
-12------------12--|-14b16----------14b15r14p12-----12-|----12----10----8-----
----b16r14--14b16--|----------------------------14b----|-14b16-12b14-10b12----
-------------------|-----------------------------------|----------------------
-------------------|-----------------------------------|----------------------
-------------------|-----------------------------------|----------------------


-----------|------------|-0------------------------------------------------|--
---7----5--|--v15b17----|---3-0-------3-0----------------------------------|--
-9b11-7b9--|------------|-------2-0-------2-0-----2-0----------------------|--
-----------|------------|-----------2---------2-0-----2-0------------------|--
-----------|------------|---------------------------------3/5---3--2--0----|--
-----------|------------|------------------------------------------------0-|--
(shake these last bends) END LICK!

If you have any questions about this tab please e-mail me at youlookalikamon@hotmail.com

By the way this song is tuned to Db so the strings work like this (Db, Ab, Db, Fb, Ab, Db)
Hope it's right.

John. P

OptimusPrime

Toegevoegd door OptimusPrime op zo 01 dec, 2002 8:41 am

Auteur: ?
Componist: ?
Uitgever: ?
Taal: Engels

Reacties

CommonCrawl [Bot]

Volg Muzikum