Bif Naked

Bif Naked
Never Alone (Guitar tab)

Never Alone
By: David Harrison: blaze@interlog.com
Song: "Never Alone" by "Bif Naked"
Album: "Bif Naked"(1996)

[Verse]
E|-0------0------
B|-3------3------
G|-2------2------
D|-0------0------
A|-0------1------
E|---------------

[Pre-Chorus]
E|-0------0------0------0---0---
B|-3------3------3------3---3---
G|-2------2------2------2---2---
D|-0------0------0------0---0---
A|-3------1------3------1---3---
E|------------------------------

[Chorus]
E|-2------3------2------1---3---
B|-3------3------3------1---3---
G|-2------0------2------2---0---
D|-0------0------0------3---0---
A|--------2-----------------2---
E|--------3-----------------3---

[Fill 1]
E|-2-----2-----3-3p2-2---0-----2-2-----2-----3---3-2---0---2-
B|-3-----3-----3-3---3---3-----3-3-----3-----3---3-3---3---3-
G|-2-----2-----2-2---2---2-----2-2-----2-----2---2-2---2---2-
D|-0-----0-----0-0---0---0-----0-0-----0-----0---0-0---0---0-
A|-----------------------------------------------------------
E|-----------------------------------------------------------

[Interlude]
E|----------------------------------------------------------------------
B|----------------------------------------------------------------------
G|-11------------0~/5-----------(5)\-2-------------2~/7-----5~h7-(7)\-11
D|-----------------------------------4----------------------------------
A|----------------------------------------------------------------------
E|----------------------------------------------------------------------

E|----------------------------------------------------------------------
B|---------------13~~~~~~~~~~(13)\-----------------13~~~~~13h15p13~(13)\
G|------------11------------------/11-----------11----------------------
D|----------------------------------------------------------------------
A|----------------------------------------------------------------------
E|----------------------------------------------------------------------

If you have any questions, comments, corrections, or additions feel
free to e-mail them to me.

OptimusPrime

Toegevoegd door OptimusPrime op zo 01 dec, 2002 8:42 am

Auteur: ?
Componist: ?
Uitgever: ?
Taal: Engels

Reacties

CommonCrawl [Bot]

Volg Muzikum