Bif Naked

Bif Naked
Everything (Guitar tab)

Everything
By: David Harrison: blaze@interlog.com
Song: "Everything" by "Bif Naked"
Album: "Bif Naked"(1996)

[Verse]
A5 B5 D5 A5
E|--------------------------
B|--------------------------
G|--------------7-----------
D|--7-----9-----7-----7-----
A|--7-----9-----5-----7-----
E|--5-----7-----------5-----

[Chorus]
E5 D5 E5
E|--------------------------------------
B|--------------------------------------
G|--9-----------7-----------9-----------
D|--9-----------7-----------9-----------
A|--7-----------5-----------7-----------
E|--------------------------------------

[Fill 1]
E|-----------------------------------------------------------------|
B|-----------------------------------------------------------------|
G|-1h2-2-2---2-2-2-1h2-2-2---2-2-2-1h2-2-2---2-2-2-1h2-2-2---2-2p1-|
D|-----------------------------------------------------------------|
A|-----------------------------------------------------------------|
E|-----------------------------------------------------------------|

[Fill 2]
E|-----------------------------------------------------------------|
B|-----------------------------------------------------------------|
G|-----------------------------------------------------------------|
D|-------------------------------------------------7-7-7-7-7-7-7-7-|
A|---------------------------------5-5-5-5-5-5-5-5-----------------|
E|-5-5-5-5-5-5-5-5-7-7-7-7-7-7-7-7---------------------------------|

OptimusPrime

Toegevoegd door OptimusPrime op zo 01 dec, 2002 8:42 am

Auteur: ?
Componist: ?
Uitgever: ?
Taal: Engels

Reacties

CommonCrawl [Bot]

Volg Muzikum