Better Than Ezra

Better Than Ezra
Extra Ordinary Ver 2 (Guitar tab)

Haven't seen any tabs for this song so I thought I'd give it a shot.
I don't know how accurate it is but maybe people can use it for a
starting point if nothing else. The guitar sounded a bit like the
riff in Madonna's "Don't Tell Me" to me so I started from there.
The timing isn't supposed to be represented in this tab - listen to
the song for it.

D
e------2p0-0---------3-0-----2p0-0---------3-0-----2p0-0---------3-0--
B------------2---2-----------------2---2-----------------2---2--------
G--------------3---3-----------------3---3-----------------3---3------
D--0--0------------------0--0------------------0--0----=--------------
A---------------------------------------------------------------------
E---------------------------------------------------------------------

e--------------------------2p0--0---------0--------2p0--0---------0---
B-------------3-------------------2---2-------------------2---2-------
G-------2--4-----4--2---------------3---3---3---------------3---3---3-
D-2--4-----------------0--0--------------------0--0-------------------
A---------------------------------------------------------------------
E---------------------------------------------------------------------

That seems to be the basic framework to me - it continues with
variations of the basic pattern that shouldn't be that hard to
figure out. I don't think the "bass" notes on the D string are
correct (the first one sounds a little higher but I don't feel
like looking for it) and there certainly are a few missing notes.
Hopefully this will at least help some folks out though.

Comments, flames, etc:

cheap_luc@hotmail.com

OptimusPrime

Toegevoegd door OptimusPrime op zo 01 dec, 2002 8:42 am

Auteur: ?
Componist: ?
Uitgever: ?
Taal: Engels

Reacties

CommonCrawl [Bot]

Volg Muzikum