Better Than Ezra

Better Than Ezra
Good (Guitar tab)

#
Date: Tue, 30 Jan 1996 12:32:25 -0800

Good -- Better Than Ezra
(tabbed by randell@heinous.music.uiowa.edu

This song has two parts:

Intro/Verses(mostly just bass)/Chorus

|---------------------------------------------|
|-----------7-7-7-7------------5-X-5-5-5-(4)--|
|--4-4-4-4--7-7-7-7---1-1-1-1--5-X-5-5-5-(4)--|
|--5-5-5-5--7-7-7-7---2-2-2-2--5-X-5-5-5-(4)--|
|--5-5-5-5--5-5-5-5---2-2-2-2--3-X-3-3-3-(2)--|
|--3-3-3-3------------0-0-0-0-----------------|

And Solo:

E |-------------------------------------------|
B |-------------------------------------------|
G |-------------------------------------------|
D |-------------------------------------------|
A |-------------------------------3-5-0-------|
E |--5-5-5-5-0-0-0-0-2-2-2-2--5---------------|

And the lyric-type thangs...
________________________________________________________
Lookin' around the house
Hidden behind the window and the door
Searchin' for signs of life but there's nobody home

Well maybe I'm just too sure
Or maybe I'm just too frightened by the sound of it
Pieces of note fall down but the letter said,

Uh huh, it was good, living with you, ohhh
Uh huh, it was good, ohhh
Uh huh, it was good, living with you, ohhh
Uh huh, it was good, ohhh

good good good good good good

Sittin' around the house
Watching the sun drape shadows on the floor
Searchin' for signs of life but there's nobody home

Well maybe I'll call or write you a letter
Now maybe we'll see on the 4th of July
Well I'm not too sure, and I'm too proud
Well I'm not too sure and I'm not too proud to say

[chorus]

Ohhhh, so good

[solo]

[chorus again]

Ohhhh
Yeah you were so good
Yeah you were so good
("Yeah thats right!")
__________________________________________________

From: Ever3Clear@aol.com
Date: Mon, 15 Jan 1996 19:30:28 -0500

This "Good" by Better then Ezra.

ok, here it is...


Verse..

G-355(6th string)-3x
D-577(5th string)-3x
Eopen--------------3x
C-355(5th string) 3x


]Chorus

Same as vers only 4x on each Power Chord.

the during solo thing.


A-577-(6th string) 3x
Eopen---------------3x
F-133(6th string)-3x
D-577(5th string)--3x


well that is it. Any questions or comments e-mail me at Ever3Clear.




Hey Ryan,ADAM,Bryan,and Mike. from sykesville MD.

OptimusPrime

Toegevoegd door OptimusPrime op ma 19 nov, 2001 9:50 am

Auteur: ?
Componist: ?
Uitgever: ?
Taal: Engels

Reacties

CommonCrawl [Bot]

Volg Muzikum