Jeff Beck

Jeff Beck
Becks Bolero (Guitar tab)

#
From: hme@layla.baltic.de (Holger J. Meyer)
Date: 10 Jun 1995 20:21:45 +0200
Subject: TAB: Becks Bolero by Jimmy Page

Here's "Beck's Bolero" written by Jimmy Page, from "Truth" by The Jeff
Beck Group.

Peace

Holger

--

basic strum pattern

| / / / / / / / / | / / / / / / / / / / |
| | | | | | | | | | | | | | | | | | | | |
| | +-+-+ | +-+-+ | | +-+-+ +-+-+ +-+-+ |
3 3 3 3 3
v v v v v v v v v v v v v v v v v v


A |--3--|
|----------------|----------------|
|----------------|----------------|
|----------------|--------14-12-11|
|----------------|----------------|
|----------------|----------------|
|----------------|----------------|

Am7 |--3--| D |--3--|
|:----------------|12--------------|----------------|-----------------|
|:----------------|----------------|----------------|-----------------|
|:12--------------|-------/16-14-12|14--------------|--------/16-14-12|
|:----------------|----------------|----------------|-----------------|
|:----------------|----------------|----------------|-----------------|
|:----------------|----------------|----------------|-----------------|

[ 1,3
Amaj7 G |--3--| Amaj7 To Coda @ |G |--3--|
|----------------|----------------|----------------|----------------|
|----------------|--------12------|----------------|--------12------|
|13--------------|12---------14-12|13--------------|12---------14-12|
|----------------|----------------|----------------|----------------|
|----------------|----------------|----------------|----------------|
|----------------|----------------|----------------|----------------|

][ 2
A |--3--| ||G A
|----------------|----------------:|----------------|----------------|
|----------------|----------------:|----------------|----------------|
|14--------------|--------14-12-11:|12--------------/14--------------|
|----------------|----------------:|----------------|----------------|
|----------------|----------------:|----------------|----------------|
|----------------|----------------:|----------------|----------------|

A G |--3--| D -3--|
|----------------|----------------|----------------|15-14-----------|
|--------1514----|1412------------|--------------12|------15--------|
|------------14--|----12----------|-----------12---|---------14-----|
|--------------14|------12--------|--------12------|----------------|
|----------------|----------------|----------------|----------------|
|----------------|----------------|----------------|----------------|

D A G |--3--| A
|--------1514----|14121412--------|-----------12-14/12--------------|
|----------------|----------------|--------15------|----------------|
|----------------|----------------|----------------|----------------|
|----------------|----------------|----------------|----------------|
|----------------|----------------|----------------|----------------|
|----------------|----------------|----------------|----------------|

][ 4
G |--3--| A |--3--| ||G |--3--|
|-----------12-14|12--------------|----------------:|----------------|
|--------15------|----------------|----------------:|--------12------|
|----------------|14--------------|--------14-12-11:|12---------14-12|
|----------------|----------------|----------------:|----------------|
|----------------|----------------|----------------:|----------------|
|----------------|----------------|----------------:|----------------|

Heavy
A A G
|----------------|----------------||----------------|----------------|
|----------------|------===-------||----------------|----------------|
|14--------------|----------------||----------------|----------------|
|----------------|----------------||----------------|--------2-0-----|
|----------------|----------------||0---0---4-0-----|------------3-4-|
|----------------|----------------||------------4-3-|----3-3---------|

A G C Bb
|----------------|----------------|----------------|----------------|
|----------------|----------------|----------------|----------------|
|----------------|----------------|----------------|----------------|
|----------------|--------2-0-----|--------2-------|-------/5-3-----|
|0---0---4-0-----|------------3---|3---3-3---3-2-1-|----1-1-----6---|
|------------4-3-|----3-3---------|----------------|----------------|

C Bb D C
|----------------|----------------|----------------|----------------|
|----------------|----------------|----------------|----------------|
|----------------|----------------|----------------|--------2-0-----|
|--------2-------|-----/5---3-----|0---0-0-4-0-----|------------3---|
|3---3-3---3-2-1-|----1-------6---|------------4-3-|----3-3---------|
|----------------|----------------|----------------|----------------|

D C E
|----------------|----------------|----------------|----------------|
|----------------|----------------|----------------|----------------|
|----------------|--------2-0-----|----------------|----------------|
|0---0-0-4-0-----|------------3---|2-------2-------|2---------------|
|------------4-3-|----3-3---------|----------------|----------------|
|----------------|----------------|----------------|----------------|

Coda
E D.C. al Coda @G A
|----------------|----------------||----------------||----------------|
|----------------|----------------||----------------||----------------|
|----------------|----------------||12--------------||----------------|
|----------------|----------------||----------------||----------------|
|----------------|----------------||----------------||12--------------|
|----------------|----------------||----------------||----------------|

G A G several times A
|----------------|:----------------|----------------:|17--------------|
|----------------|:----------------|----------------:|----------------|
|----------------|:----------------|----------------:|----------------|
|----------------|:----------------|----------------:|----------------|
|----------------|:----------------|----------------:|----------------|
|----------------|:----------------|----------------:|----------------|
Giutar solo ad lib.

Amaj7

I xo-o-o
----i- index finger
--m--- middle finger
------

--
Holger J. Meyer: hm@guug.de, http://www.informatik.uni-rostock.de/~hme/
-- As we anarchists say: "There's no government like no government."
-- D'Arcy J.M. Cain (darcy@druid)

OptimusPrime

Toegevoegd door OptimusPrime op zo 18 nov, 2001 11:14 pm

Auteur: ?
Componist: ?
Uitgever: ?
Taal: Engels

Reacties

CommonCrawl [Bot]

Volg Muzikum